Infinitamente Mais

Fernandinho

 Fernandinho Compositor: Fernandinho
Tom: G#
		
Intro: Fm

Fm                 C#9
Minhas lágrimas enchem os seus odres
Fm                C#9
Meu clamor está escrito no Seu livro

Fm  C#9  (6x)
Uooooh!


E|---------------------------------------------------------|
B|--------------------------------8-8--8-----8-8--8--------| (Riff - Intro da Guitarra)(2x)
G|-----8--8-10-------8--8-10------8-8--8-----8-8--8--------|
D|-----8--8-10-------8--8-10-------------------------------|
A|--8-------------8----------------------------------------|
E|--8-------------8----------------------------------------|


Riff|:


E|----------------------------------------------------------|
B|----------9---8--9----------------------------------------|
G|----8--8----8---------------------------------------------|
D|----------------------------------------------------------|
A|----------------------------------------------------------|
E|----------------------------------------------------------|


Fm               C#9
Minhas lágrimas enchem os Seus odres
Fm                 C#9
Meu clamor está escrito no seu livro
Bbm                 Fm
As muitas águas não podem afogar, não
Bbm                  C#9         D#9     Bbm  D#9
Estou esperando Tua luz em meio a noite

       G#
Mas eu sei em quem tenho crido
       Eb                      Fm
Também sei que é Poderoso pra fazer
     C#9      G#                    D#9
Infinitamente mais, mais, mais, mais

Fm   C#9 (4x)
Uooooh!

No final (Fm  C#9  G#)

Riff:


E|-----------------------------------------------------------|
A|-----------------------------------------------------------|
D|-----------------------------------------------------------|
G|---------------------15/17---------------------------------|
B|--------16/18----------------------------------------------|
E|-----------------------------------------------------------|
Texto Colunas
Alterar tom ½ tom ½ tom
afinação acordes na letra esconder tabs mais »

Comentários (7)

  • Mizael Lucas Mizael Lucas: Postado em 17/09/2013 19:40

    muito maneira essa música.

  • rodrigo.enes rodrigo.enes: Postado em 11/06/2013 17:12

    diminuii meio ton ;( esses acordes ficaram muito dificeis rs

    • Alessandro Alessandro: Postado em 18/09/2013 11:23

      Acaba ficando melhor colocar um Capo na 1º casa, pra não sair do tom .

  • welliton_bueno welliton_bueno: Postado em 04/03/2013 12:10

    Fico top..;)

  • marcos_mrl marcos_mrl: Postado em 26/02/2013 16:02

    agora sim!

  • adson_araujo adson_araujo: Postado em 27/10/2012 12:38

    a cifra ficou legal só folta corrigir a palavra olhos por odres

  • tholokho tholokho: Postado em 10/10/2012 17:19

    Show de bola, Muito bom....

Composição: Sabe quem é o compositor? Envie pra gente. Contribuição: cardan Correções: Natan , samuelfelix e mais 14 »
  1. Tudo Que Você Quiser - Luan Santana Manteve-se 5.417 exibições
  2. Lepo Lepo - Psirico Manteve-se 3.901 exibições
  3. Mozão - Lucas Lucco Manteve-se 3.749 exibições
  4. Logo Eu - Jorge e Mateus Manteve-se 3.341 exibições
  5. Gaveta - Fernando e Sorocaba Manteve-se 2.999 exibições
  6. Só Os Loucos Sabem - Charlie Brown Jr. Manteve-se 2.698 exibições
  7. Pra Você - Onze:20 Manteve-se 2.391 exibições
  8. Tempo Perdido - Legião Urbana Manteve-se 2.189 exibições
  9. Fui Fiel - Gusttavo Lima Manteve-se 2.019 exibições
  10. Na Linha do Tempo - Victor e Leo Manteve-se 1.925 exibições
  1. Jorge e Mateus- Manteve-se 20.025 exibições
  2. Legião Urbana- Manteve-se 17.810 exibições
  3. Luan Santana- Manteve-se 15.901 exibições
  4. Charlie Brown Jr.- Manteve-se 15.521 exibições
  5. Fernandinho- Manteve-se 13.364 exibições
  6. Thalles Roberto- Manteve-se 10.046 exibições
  7. Aline Barros- Manteve-se 9.582 exibições
  8. Católicas- Manteve-se 9.431 exibições
  9. Victor e Leo- Manteve-se 9.367 exibições
  10. Gusttavo Lima- Manteve-se 8.996 exibições
Exibir acordes »

Cifras e tabs

Fórum Cifra Club

Aprenda

Cifra Club News

Mais Serviços Cifra Club ID

Studio Sol

©1996 - 2014 Cifra Club · o primeiro, maior e mais acessado do Brasil · 329 mil músicas · 5.9 milhões pessoas cadastradas

publicidade
fechar