Já estou crucificado

Fernandinho

 Fernandinho
Tom: G
		
Intro: G  D9  Em  C

		 G         D9
Já estou crucificado com cristo
		 Em        C
Agora vivo não mais eu...
		G       D9
Cristo vive em mim aleluia
                Em         C
Cristo vive em mim aleluia...

Intro baixo:

G|----0--------0----0-------|
D|---0--------0--0---0------|
A|--2--------2----2---2-----|
E|-3--------3---------------|



G|----50-------5-----5------|
D|---5--0-----5--5----5-----|
A|--7--------7----7----7----|
E|-8--------8---------------|


Começa a musica nas notas: G  D9  Em  C

Baixo:


        (G)
G|----0-------
D|---0--------
A|--2---------
E|-3----------


       (D9)
G|----2-------
D|---0--------
A|--0---------
E|-2----------


       (Em)
G|----0-------
D|---0--------
A|--2---------
E|-0----------


       (C)
G|----5-------
D|---5--------
A|--7---------
E|-8----------


Solo guitarra:


E|3/5/7--2/3/5-----------------------------|
A|--------------7-9--10---3-5-7-9-10-12--10|
D|5/7/9--4/5/7-----------------------------|
G|--------------9-11-12---5-7-9-10-12-14-12|

Comentários 4

  • fernandarodriguesesteves fernandarodriguesesteves: Postado em 30/01/2014 21:54

    Também tem como tocar em (D - A9 - Bm - C9) é uma boa opção para mulheres!

  • ester.rodriguesa ester.rodriguesa: Postado em 16/08/2013 19:00

    nouss q louvor lindo .... e as cifras sertinhas .....

  • Louvor Asas Louvor Asas: Postado em 03/05/2013 11:18

    Cifra corrigida e aprovada pelo cifra club

  • tapha tapha: Postado em 11/09/2012 14:38

    adorei o site!

Composição: Sabe quem é o compositor? Envie pra gente. Contribuição: Pr_Rogerio Correções: Lucas Gabriel , cicero.chan e mais 5 »
Exibir acordes »
publicidade
fechar