Se Deus É Por Nós

Fernandinho

 Fernandinho
Tom: E
		

Intro:  F#m, G#m, A9 (2x) 
e|-12----9---------9----12----9---------9----12----9-------------------------|
B|-12-12---12---12---12----12---12---12---12----12---12---12--10-9-10-9-10-9-|
G|---------------------------------------------------------------------------|
D|---------------------------------------------------------------------------|
A|---------------------------------------------------------------------------|
E|---------------------------------------------------------------------------|



e|-12----9---------9----12----9---------9----9-------------------------------|
B|-12-12---12---12---12----12---12---12---12---------------------------------|
G|---------------------------------------------------------------------------|
D|---------------------------------------------------------------------------|
A|---------------------------------------------------------------------------|
E|---------------------------------------------------------------------------|


E9             B9                   A                    
O que diremos pois diante dessas coisas? 
E9             B9                   A                   
O que diremos pois diante dessas coisas? 

F#m               B    
É Ele quem nos chama 
   B9                      C#m 
É Ele quem nos justifica 
F#m                        B4/7, B9
É Ele quem nos glorifica 

              C#m  A9          B9                               E/G#, B 
Se Deus é por nós? Quem será contra nós? 
              C#m  A9                                           
Se Deus é por nos? Quem será contra nós? 


e|-12----9---------9----12----9---------9----12----9-------------------------|
B|-12-12---12---12---12----12---12---12---12----12---12---12--10-9-10-9-10-9-|
G|---------------------------------------------------------------------------|
D|---------------------------------------------------------------------------|
A|---------------------------------------------------------------------------|
E|---------------------------------------------------------------------------|

F#m, G#m, A9 

Agindo quem Deus, quem impedirá? 
Agindo quem Deus, quem impedirá? 

                        C#m A9                                 E/G#, B 
Se Deus é por nos? Quem será contra nós?
61.045 exibições

Comentários 1

  • kevin_piano kevin_piano: Postado em 24/08/2014 12:17

    O refrão é C#m A9 G#m B9

Composição: Fernandinho
Esse não é o compositor? Avise-nos.
Contribuição: jimi
Exibir acordes »
publicidade
fechar