Se não for pra te adorar

Fernandinho

 Fernandinho
VERSE 1

    G|--------------------------------------------------|
    D|--------------------------------------------------|       
    A|--5-5-5------------5-5-5--------------------------|
    E|--------3-3-3-3----------3-3-3-3------------------|
  
       VERSE 2
    G|--------------------------------------------------|
    D|--------------------------------------------------|2VEZ
    A|----5-5-5-----------------------------------------|
    E|----------3-3-3--5---7-7-7-7--5-5-55--77-55--33/55|

      VERSE3
    G|--------------------------------------------------|
    D|--------------------------------------------------|2 VEZ REFRAO
    A|-----5-55-------2--22---------------------555-----|
    E|----------3-33--------5-5--333----5--55-----------|

    VERSE 4

    G|----------------------------------------------------|
    D|--------------5--7-------------5-7-----5--7 --------|
    A|---5-5--8---5-------55-5-8--5------8----------5-----|
    E|----------------------------------------------------|    |
    VERSE5                                                      |2 VEZES OS VERSOS 4 E 5 
    G|-----------------------------------------------------|   |
    D|--------------5--7-----------------------------------|
    A|---55--8--5----------5-------------------------------|
    E|-----------------------------------------------------| 
 
     VERSE 6
    G|--------------------------------------------------|
    D|--------------------------------------------------|2 VEZ
    A|----5-5-5-----------------------------------------|
    E|----------3-3-3--5---7-7-7-7--5-5-55--77-55--33/55|

     VERSE 7
    G|--------------------------------------------------|
    D|--------------------------------------------------|2 VEZ REFRAO
    A|-----5-55-------2--22-----------------------------|
    E|----------3-33--------5-5--333----5--55-----------|

    G|--------------------------------------------------|
    D|--------------------------------------------------|       
    A|--5-5-5------------2222----------5-5-5------------|
    E|--------3-3-3-3----------55555---------3333-------|

    G|---------------------------------------------------|
    D|---------------------------------------------------|
    A|---5--5-5------------------------------------------|
    E|---------3-3-3--5---7-7-7---5-5-5----3-3-3---5-5-5-|

    G|---------------------------------------------------|
    D|---------------------------------------------------|
    A|--5-5-5-5-------------------------5-5--------------|
    E|----------3-3-3-3--6--7-7-7--5-5-5-----3-3-3-3-----|

Comentários 1

  • mota mota: Postado em 15/06/2012 15:03

    Eu NASCI PRA TI ADORAR JESUS XD /o/

Composição: Fernandinho/Paula Terra
Esse não é o compositor? Avise-nos.
Contribuição: léo
publicidade
fechar