Seu Sangue

Fernandinho

 Fernandinho
Tom: A
		
(intro) F#m


                                        [-------(4x)----------]
E|12------------------12------------------12/24--------------||
B|--10-12-----10--------10-12----10---------24-22-------10---||
G|-------9-11----------------9-11-----------------9-11-------||
D|-----------------------------------------------------------||
A|-----------------------------------------------------------||
E|-----------------------------------------------------------||


(riff 1) - Enquanto canta o 1° Estrofe

E|-----------------------------------------10-10--9-9-||
B|-------10-10-10--9-9-9--10-10-10--9-9-9-------------||
G|----------------------------------------------------||
D|----------------------------------------------------||
A|----------------------------------------------------||
E|----------------------------------------------------||


(riff 2) Na parte que canta: "Ele já venceu" é assim:

E|---------------------------------------------------------||
B|-------10-10-10--9-9-9--10-10-10--9-9-9--10-10--9-9------||
G|---------------------------------------------------------||
D|---------------------------------------------------------||
A|---------------------------------------------------------||
E|---------------------------------------------------------||


(riff 1)
A           E
Seu sangue,  Sua cruz
F#m           D
Me levam de volta pra Deus
A          E
Sua morte,   Sua vida
F#m          D (riff 2)
As trevas,  ele já venceu

E          D             E            D
Seu amor me conquistou, Sou eterno devedor


        (Harmonico na 7ª casa após o G, após o D e após o F#m)
E|-h7-h7-h7----------|
B|----------h7-------|
G|-------------h7----|
D|----------------h7-|
A|-------------------|
E|-------------------|


G                 D
O véu se rasgou
                       F#m
Sua luz em mim brilhou
                   E                      Bm    E
Sua glória me cobriu Mais que vencedor eu sou
                     Bm    E
Mais que vencedor eu sou

(refrão - notas agudas menos o D)

A                          E
Sei que na sala do trono está
               F#m
Eu quero ir pra lá
            D
Pelo novo e vivo caminho

xX - Repete Tudo 1x (O solinho já começa com o slide "12/24" e é feito 4x)- Xx

(solo)

 |-----(4x)------|
E|12/24----------------------------||
B|--24-22------10------------------||
G|-------9--11---------------------||
D|---------------------------------||
A|---------------------------------||
E|---------------------------------||


(intro 4x) F#m

Comentários 2

  • Jael Jael: Postado em 20/01/2014 22:59

    Só faltou o solo =//

  • rodrigo_phanton rodrigo_phanton: Postado em 27/05/2012 17:50

    Manda Uma Video Aula =D

Composição: Sabe quem é o compositor? Envie pra gente. Contribuição: Ivanovisk Correções: Rafael , caiorene e mais 7 »
Exibir acordes »
publicidade
fechar