Sou Feliz

Fernandinho

 Fernandinho
Tom: G#
		
Intro: Gm  F  Gm  G#  D#  G#

    D#                 G#      D#
Se paz a mais doce me deres gozar
    Fm         C#       A#       D#         Fm
Se dor a mais forte sofrer, oh! seja o que for,
       C#   A#                D#        G#         D# G#
Tu me fazes saber que feliz com Jesus sempre sou!

       D#         A#   D#/G
Sou feliz, com Jesus,
      G#       A#           D#  G#
Sou feliz com Jesus, meu Senhor!     (2X)

  D#        Fm        C#       D#
Embora me assalte o cruel Satanás
   Fm        C#          A#
E ataque com vis tentações;
     D#        Fm       C#        A#
Oh! certo eu estou, apesar de aflições,
       D#       G#       D#  G#
Que feliz eu serei com Jesus!

       D#         A#   Gm
Sou feliz, com Jesus,
      G#       A#           D#  G#
Sou feliz com Jesus, meu Senhor!     (2x)

( Cm  G# ) (2x)

( Fm  Cm  D#  Fm  Cm  G#  A# )
Solo:

E|--------------15-15-10-11-----------
B|-----13-13-13-----------------------
G|-/12----------------------12-13-13--
D|------------------------------------
A|------------------------------------
E|------------------------------------



E|----------15-15-10-11---------------
B|-13-13-13---------------------------
G|----------------------12-13-13------
D|------------------------------------
A|------------------------------------
E|------------------------------------



E|----------------------------18-18-18------------
B|-13-13-13-15-15-15-16-16-16----------15-15-15---
G|------------------------------------------------
D|------------------------------------------------
A|------------------------------------------------
E|------------------------------------------------



E|----------------------18------------------------
B|-16-16-16-18b20-15-16----15-16-18b20------------
G|------------------------------------------------
D|------------------------------------------------
A|------------------------------------------------
E|------------------------------------------------



E|----18-------15-------16------------
B|-15---------------------------------
G|-------15-12----12-10----10-8-------
D|------------------------------------
A|------------------------------------
E|------------------------------------


    D#       Fm       C#        A#
Ao céu onde vou para sempre morar
      D#        G#        D#
Com remidos na luz do Senhor.

( D#  Fm  Gm  G# ) (6x)

       D#         A#   Gm
Sou feliz, com Jesus,
      G#       A#        ( A#  G  G#  F ) (4x) ( D# )
Sou feliz com Jesus, meu Senhor!

     D#        Fm       C#        A#
Oh! certo eu estou, apesar de aflições,
       D#       G#       D#  G#
Que feliz eu serei com Jesus!  (3x)
79.722 exibições

Comentários 2

  • Kim Kim: Postado em 08/10/2012 21:09

    Que Deus abençoe!!!! Linda canção!!!

  • samux samux: Postado em 23/11/2011 19:10

    esse video nao desta musica

Composição: Sabe quem é o compositor? Envie pra gente. Contribuição: jorginho_guitar Correções: Douglas , Maycon e mais 3 »
Exibir acordes »
publicidade
fechar