Luz Da Minha Manhã

Fernando e Sorocaba

 Fernando e Sorocaba
Tom: A
		
(refrão):
A               E                D
Luz da minha manhã, brilho do meu luar
  C#m     D         E   E7
Todo dia quero te amar
 A                E            D
Volta pros meus braços quero te dizer
 Bm         D          E
Eu preciso tanto de você
 Bm         D          E
Eu preciso tanto de você

(Base do solo): A E D C#m D E

(solo):


E|--------------------------------------------------|
B|-----------2-3-3/5-----10-9--6-6--2-3-3/10-10->---|
G|-------2-4----------------------------------------|
D|---2-4--------------------------------------------|
A|--------------------------------------------------|
E|--------------------------------------------------|





E|-----------------------------------------|
B|-----------2h3-2--2h3-2------------------|
G|-------2-4--------------4----------------|
D|---2-4--------------------2--------------|
A|-----------------------------------------|
E|-----------------------------------------|



       A                          E
Quando olho nos seus olhos tenho medo
         F#m                      E
Ninguém nesse mundo mais me fez chorar
       D          E           A    E    F#m
O meu coração dispara se embriaga de paixão
     D                            E
Das lembranças não consigo me livrar

        A                       E
Já não sei se estou certo ou errado
      F#m                    E
É um fogo que não sei como apagar
      D            E            A     E      F#m
Minha alma queima de saudades, sem você não dá,
         D           E            A     E E7
Ninguém nesse mundo toma o seu lugar

(refrão):
 A               E               D
Luz da minha manhã, brilho do meu luar
 C#m       D         E   ( E7 )
Todo dia quero te amar
 A                E            D
Volta pros meus braços quero te dizer
 Bm         D          E
Eu preciso tanto de você
 Bm         D          E
Eu preciso tanto de você

(solo)
148.318 exibições

Comentários 2

Composição: Sabe quem é o compositor? Envie pra gente. Contribuição: Bornia Correções: felipeaugusto_c , THULIO MELO e mais 2 »
Exibir acordes »
publicidade
fechar