Nada Faz Sentido

Fernando e Sorocaba

 Fernando e Sorocaba
Tom: A
		
Intro:

E|-0-0-0--------------------------|-0----0-0----------------------|
B|-5-3-2-----------------5--------|-3/5--3-2----------------------|
G|--------4-2--------2/4---4-4/6~-|-----------4\2-------4p2-------|
D|------------4-------------------|---------------4---------4-2---|
A|--------------------------------|-------------------------------|
E|--------------------------------|-------------------------------|



    A             D    E            A               D   E           A
E|-0---0-0------------------------|-0---0-0-----------------------|
B|-3/5-3-2---------------5--------|-3/5-3-2-----------------------|
G|-----------4\2-----2/4---4-4/6~-|-----------4\2-----4-2h4p2-----|
D|---------------4----------------|---------------4-----------4--2|
A|--------------------------------|-------------------------------|
E|--------------------------------|-------------------------------|


Primeira Parte 4x:

       D           E             A
E|---2-x-0-|-----x---|-----x-------x---|
B|---3-x-0-|---0-x-0-|---2-x-2---2-x-0-|
G|---2-x-0-|---1-x-0-|---2-x-2---2-x-0-|
D|-0---x-0-|---2-x-0-|---2-x-2---2-x-0-|
A|-----x---|-----x-0-|-0---x---0---x-0-|
E|-----x---|-0---x---|-----x-------x---|


                 D  E      A
Os dias não tem nexo sem você
                       D    E            A
Minha vida é um livro aberto, tente entender
               D    E           A
Que é muito difícil ter que aceitar
                  D   E        A
Que a chama de um amor pode apagar

Segunda Parte:
                   E
É que as vezes me pego pensando
G                   E
Quanto eu já fui feliz

  D (parada)
É, um dia fui feliz

E|-----5-|                              e|---------|
B|-5h7---|                              B|---------|
G|-------|       e outro violão         G|-----2p0-|
D|-------|   ao mesmo tempo tocando:    D|-0h2-----|
A|-------|                              A|---------|
E|-------|                              E|---------|

Refrão:
                 D            E             A
O futebol meu violão meu carro meus amigos
                  D       E             A
Já não significam nada sem você comigo
                      D    E               A
Domingo sem você tem cara de segunda-feira
                           D         E              A
Não tenho mais para quem ligar a madrugada inteira

                  D
Sozinho no cinema
            E              A
O filme fica sempre sem cor
                  D
Nada faz sentindo
       E        A
Sem o seu amor

(Intro)


E|-0-0-0--------------------------|-0----0-0----------------------|
B|-5-3-2-----------------5--------|-3/5--3-2----------------------|
G|--------4-2--------2/4---4-4/6~-|-----------4\2-------4p2-------|
D|------------4-------------------|---------------4---------4-2---|
A|--------------------------------|-------------------------------|
E|--------------------------------|-------------------------------|



    A             D    E            A               D   E           A
E|-0---0-0------------------------|-0---0-0-----------------------|
B|-3/5-3-2---------------5--------|-3/5-3-2-----------------------|
G|-----------4\2-----2/4---4-4/6~-|-----------4\2-----4-2h4p2-----|
D|---------------4----------------|---------------4-----------4--2|
A|--------------------------------|-------------------------------|
E|--------------------------------|-------------------------------|




Solo gaita:


     D    E        A                 D      E           A
E|-10/12~-10~~-|-10/12-10-9--------12/14~-13h14-13h14-12~~----------|
B|-------------|-------------12-10----------------------------------|
G|-------------|----------------------------------------------------|
D|-------------|----------------------------------------------------|
A|-------------|----------------------------------------------------|
E|-------------|----------------------------------------------------|



     A                 D      E             A                     D      E
E|-10/12-10-9--------12~~---------12---------|-10/12-10-9-------12/14~-13h14-13h14-12~-|
B|------------12-10---------10/12----12/14---|------------12-10------------------------|
G|-------------------------------------------|-----------------------------------------|
D|-------------------------------------------|-----------------------------------------|
A|--------------------------------------------|-----------------------------------------|
E|-------------------------------------------|-----------------------------------------|



Segunda Parte :

      D         E        A
E|---2-2-|-----x---|-------|
B|---3-3-|---0-x-0-|---2-2-|
G|---2-2-|---1-x-0-|---2-2-|
D|-0-----|---2-x-0-|---2-2-|
A|-------|-----x-0-|-0-----|
E|-------|-0---x---|-------|



                 D  E      A
Os dias não tem nexo sem você
                         D    E            A
Minha vida é um livro aberto, tente entender


E|-5/7\5-5/7\5-|
B|-5/7\5-5/7\5-|
G|-------------|
D|-------------|
A|-------------|
E|-------------|


               D    E           A
Que é muito difícil ter que aceitar
                  D   E        A
Que a chama de um amor pode apagar


                   E
É que as vezes me pego pensando
G                   E
Quanto eu já fui feliz

  D (parada)
É, um dia fui feliz

E|-----5-|                              e|---------|
B|-5h7---|                              B|---------|
G|-------|       e outro violão         G|-----2p0-|
D|-------|   ao mesmo tempo tocando:    D|-0h2-----|
A|-------|                              A|---------|
E|-------|                              E|---------|

Refrão:
                 D            E             A
O futebol meu violão meu carro meus amigos
                  D       E             A
Já não significam nada sem você comigo
                      D    E               A
Domingo sem você tem cara de segunda-feira
                           D         E              A
Não tenho mais para quem ligar a madrugada inteira

                  D
Sozinho no cinema
            E              A
O filme fica sempre sem cor
                  D
Nada faz sentindo
       E        A
Sem o seu amor

Abafado:

E|-x(5)-x(5)-x(5)-|
B|-x(5)-x(5)-x(5)-|
G|----------------|
D|----------------|
A|----------------|
E|----------------|


                 D            E             A
O futebol meu violão meu carro meus amigos
                  D       E             A
Já não significam nada sem você comigo
                      D    E               A
Domingo sem você tem cara de segunda-feira
                           D         E              A
Não tenho mais para quem ligar a madrugada inteira

                  D
Sozinho no cinema
            E              A
O filme fica sempre sem cor
                  D
Nada faz sentindo
       E        A
Sem o seu amor

(Final)


E|-0-0-0--------------------------|-0----0-0----------------------|
B|-5-3-2-----------------5--------|-3/5--3-2----------------------|
G|--------4-2--------2/4---4-4/6~-|-----------4\2-------4p2-------|
D|------------4-------------------|---------------4---------4-2---|
A|--------------------------------|-------------------------------|
E|--------------------------------|-------------------------------|



    A             D   E              A             D    E            A
E|-0---0-0------------------------|-0---0-0----------|--------------0--|
B|-3/5-3-2---------------5--------|-3/5-3-2----------|--------------2--|
G|-----------4\2-----2/4---4-4/6~-|-----------4\2----|-4-2h4p2------2--|
D|---------------4----------------|---------------4--|---------4--2-2--|
A|--------------------------------|------------------|-----------------|
E|--------------------------------|------------------|-----------------|
Texto Colunas
Alterar tom ½ tom ½ tom
afinação acordes na letra esconder tabs mais »
29.390 exibições

Comentários (11)

  • leunamesantos3 leunamesantos3: Postado em 03/04/2013 10:22

    muito facil

  • Samuel Samuel: Postado em 10/10/2012 20:33

    aeeee, aceitaram minha correção!

    • felipeaugusto_c felipeaugusto_c: Postado em 15/01/2013 15:53

      Samuel, quanto tem gastou para eles aceitarem sua correção? eu corrigi uma outra cifra à 2 semanas e até hj não alterou nada.

  • malk20145 malk20145: Postado em 18/07/2012 18:21

    Façam uma vídeo aula dessa música
    Por favor!!!!!!

  • mayiquinho mayiquinho: Postado em 07/06/2012 14:19

    video aula

  • _kelvindias _kelvindias: Postado em 28/04/2012 22:45

    mtoo linda essa música

  • Madruguinha Madruguinha: Postado em 11/04/2012 11:22

    Poderiam fazer uma video-aula dessa musica!!

  • caruzo2 caruzo2: Postado em 21/03/2012 17:33

    parabens paulo é a cifra mas certa que eu ja vi no site ta original.

  • allanmineiro allanmineiro: Postado em 17/03/2012 13:48

    aí galera esta eh a minha versão q elaborei ficou completa porém bem fácil qq coiso eh so falar vlw

  • Henry Henry: Postado em 20/01/2012 22:52

    muito Linda essa Musica

Exibindo 10 de 11 comentários Mostrar mais ver todos »
Composição: Sabe quem é o compositor? Envie pra gente. Contribuição: Paulo Leal Correções: Samuel , wallace_menon e mais 2 »
  1. Tudo Que Você Quiser - Luan Santana Manteve-se 5.838 exibições
  2. Lepo Lepo - Psirico Manteve-se 4.258 exibições
  3. Mozão - Lucas Lucco Manteve-se 4.092 exibições
  4. Logo Eu - Jorge e Mateus Manteve-se 3.677 exibições
  5. Gaveta - Fernando e Sorocaba Manteve-se 3.251 exibições
  6. Só Os Loucos Sabem - Charlie Brown Jr. Manteve-se 2.945 exibições
  7. Pra Você - Onze:20 Manteve-se 2.783 exibições
  8. Tempo Perdido - Legião Urbana Manteve-se 2.356 exibições
  9. Fui Fiel - Gusttavo Lima Manteve-se 2.236 exibições
  10. Na Linha do Tempo - Victor e Leo Manteve-se 2.111 exibições
  1. Jorge e Mateus- Manteve-se 22.167 exibições
  2. Legião Urbana- Manteve-se 19.327 exibições
  3. Luan Santana- Manteve-se 17.248 exibições
  4. Charlie Brown Jr.- Manteve-se 16.750 exibições
  5. Fernandinho- Manteve-se 14.218 exibições
  6. Thalles Roberto- Manteve-se 10.904 exibições
  7. Católicas- Manteve-se 10.314 exibições
  8. Aline Barros- Manteve-se 10.062 exibições
  9. Victor e Leo- Manteve-se 10.039 exibições
  10. Gusttavo Lima- Manteve-se 9.893 exibições
Exibir acordes »

Cifras e tabs

Fórum Cifra Club

Aprenda

Cifra Club News

Mais Serviços Cifra Club ID

Studio Sol

©1996 - 2014 Cifra Club · o primeiro, maior e mais acessado do Brasil · 329 mil músicas · 5.9 milhões pessoas cadastradas

publicidade
fechar