Vem Ficar do Meu Lado

Fernando e Sorocaba

 Fernando e Sorocaba
Tom: G
		

 Intro 2x: G D Am C
E|----7-7-7--5-3-5/7-7-7-7--5-3-5-5/8-7-3-5-5/7--|
B|-----------------------------------------------|
G|----7-7-7--5-4-5/7-7-7-7--5-4-5-5/9-7-4-5-5/7--|
D|-----------------------------------------------|
A|-----------------------------------------------|
E|-----------------------------------------------|



E|-----7-7-7--5-3-5/7-7-7-7--5-3-5-3-3-5-3-------|
B|-----------------------------------------------|
G|-----7-7-7--5-4-5/7-7-7-7--5-4-5-4-4-5-4-------|
D|-----------------------------------------------|
A|-----------------------------------------------|
E|-----------------------------------------------|


G        D          Am                 C              G
Outra vez, eu não sei, se você vai querer voltar pra mim.
        D            Am                     C             G
Tenho andado, pelas ruas, e hoje sei que esse amor estava aqui
                D         Am      C           G
Do meu peito abrigado machuca calado, chama por você.
             D               Am      C              G
Ai me deixa doente tão inconseqüente, vivendo por viver.
G        D    Am            C
Cadê você me diz, é só com você que me sinto feliz.
        G   D     Am          C              D
Não há lugar pra mim, esse seu bem será o meu fim.

G
Me chama de palhaço vem me puxa pelo braço me da beijo sai de perto
                                         D
Dessa vez eu to esperto, eu não tenho medo.
     G
Te quero do jeito que você quer é dia sim é dia não eu to ficando calejado de
		               D
tanto levar pancada de você paixão.
C                             D   G   D
Vem ficar, do meu lado, coração.

G
Me chama de palhaço vem me puxa pelo braço me da beijo sai de perto
                                       D
Dessa vez eu to esperto, eu não tenho medo.
     G
Te quero do jeito que você quer é dia sim é dia não eu to ficando calejado de
		                D
tanto levar pancada de você paixão.
C                             D  G  D
Vem ficar, do meu lado, coração.

(repete tudo)
214.672 exibições

Comentários 2

  • nathancajaiba nathancajaiba: Postado em 08/07/2012 01:06

    Qual o Ritmo ???


    • Math Math: Postado em 14/08/2012 14:24

      pega de ouvido cara..

Composição: Fernando Sorocaba
Esse não é o compositor? Avise-nos.
Contribuição: Bruno Bellio Correções: edinansouza42 , MarcosVeDaniel e mais 4 »
Exibir acordes »
publicidade
fechar