Últimos Guerreiros

Filhos do Homem

 Filhos do Homem
   _________Intro____________
   |                          |
   |--------14-Vezes----------|
Ch |x-x-x-x-x-x-x-x-x-x-x-x-x-|
Cx |--------o---------------o-|
Su |--------------------------|
BB |o-----o-------o-o-----o---|

   |--------11-Vezes----------|
Ch |x-x-x-x-x-x-x-x-x-x-x-x-x-|
Cx |--------o---------------o-|
Su |--------------------------|
BB |o-----o-------o-o-----o---|




   |--------11-Vezes----------|
Ch |x-x-x-x-x-x-x-x-x-x-x-x-x-|
Cx |--------o---------------o-|
Su |--------------------------|
BB |o-----o-------o-o-----o---|




   |--------16-Vezes----------|
Ch |x-x-x-x-x-x-x-x-x-x-x-x-x-|
Cx |--------o---------------o-|
Su |--------------------------|
BB |o-----o-------o-o-----o



Contribuição: olga (olga.com@bol.com.br)

Comentários 0

Consegui tocarAinda não conseguiram tocar essa música. Seja o primeiro!
    Não consegui tocar
    publicidade
    fechar