Hino do Flamengo

Flamengo

 Flamengo Compositor: Mktsamp
Tom: D
		

E|--5-5-6-5-8----5-8-5------------------8/10--6---------|
B|------------8---------8-6-----6-8-6-------------------|
G|------------------------------------------------------|
A|------------------------------------------------------|
D|------------------------------------------------------|
E|------------------------------------------------------|



E|--10/13--10-8--------------8/10--6--10/13--12-------12|
B|------------------6-8-6-----------------------13-10---|
G|------------------------------------------------------|
A|------------------------------------------------------|
D|------------------------------------------------------|
E|------------------------------------------------------|



E|--10-------10-10--8-------10-------8--6------3--5-----|
B|-----11-8-----------10----------10--------6-----------|
G|-----------------------10-----------------------------|
A|------------------------------------------------------|
D|------------------------------------------------------|
E|------------------------------------------------------|



E|--5-5-6-5-8-----6-5-3--8--5---------------------------|
B|-------------8---------------6------------------------|
G|------------------------------------------------------|
A|------------------------------------------------------|
D|------------------------------------------------------|
E|------------------------------------------------------|
21.021 exibições

Comentários 1

Exibir acordes »
publicidade
fechar