Meu Eu Em Você

Flavio Pedro

Sem foto do Flavio Pedro Compositor: Victor / Leo
Tom: F#
		
F#
Eu sou o brilho dos teus olhos ao me olhar
       Ebm
Sou o teu sorriso  ao ganhar um beijo meu
     B                              Ebm
Eu sou teu corpo inteiro a se arrepiar
       Abm                          C#
Quando em meus braços você se acolheu


E |----10/12---10---
B |----10/12---10---
G |-----------------


F#
Eu sou o teu segredo mais oculto
       Ebm
Teu desejo mais profundo, o teu querer
     B                   Ebm
Tua fome de prazer sem disfarçar
          Abm                          C#
Sou a fonte de alegria, sou o teu sonhar


E |------------------|
B |------------------|
G |---------7-9-11-9-|
D |-----7-9----------|
A |-7-9--------------|
E |------------------|


    B                             Ebm
Eu sou a tua sombra, eu sou teu guia
       F#                        C#
Sou o teu luar em plena luz do dia
        Abm                           B
Sou tua pele, proteção, sou o teu calor
        F#                              C#
Eu sou teu cheiro a perfumar o nosso amor
    Abm                   B
Eu sou tua saudade reprimida
       F#                           C#
Sou o teu sangrar ao ver minha partida
          Abm                         B
Sou o teu peito a apelar, gritar de dor
       F#                               C#
Ao se ver ainda mais distante do meu amor

(refrão)
        B        Ebm
Sou teu ego, tua alma
        Abm                         C#
Sou teu céu, o teu inferno a tua calma
            B             Ebm
Eu sou teu tudo, sou teu nada
         B         Ebm
Minha pequena, és minha amada
            B                Ebm
Eu sou o teu mundo, sou teu poder
         B         C#           F#
Sou tua vida, sou meu eu em você

(coloque a pestana móvel na 7ª casa *traste)

(solo)

        F#                 Ebm              F#              Ebm
E |-7--10--------------7--7-----------7--10-----------7--7------------------|
B |-7----8---(5x)------7---8---(5x)---7----8--(5x)----7---8---(5x)----------|
G |-7-----0------------7----9---------7-----0---------7----9----------------|
D |-7------------------7--------------7---------------7---------------------|
A |-7------------------7--------------7---------------7---------------------|
E |-7------------------7--------------7---------------7---------------------|



E |-12-10-8-------------------------------------|
B |---------12-10-8-----------------------------|
G |-----------------12-11-9---------------------|
D |-------------------------12-10-9-------------|
A |---------------------------------12-10-9-----|
E |---------------------------------------------|


    B                             Ebm
Eu sou a tua sombra, eu sou teu guia
       F#                        C#
Sou o teu luar em plena luz do dia
         Abm                          B
Sou tua pele, proteção, sou o teu calor
        F#                              C#
Eu sou teu cheiro a perfumar o nosso amor
    Abm                   B
Eu sou tua saudade reprimida
       F#                           C#
Sou o teu sangrar ao ver minha partida
           Abm                        B
Sou o teu peito a apelar, gritar de dor
       F#                              C#
Ao se ver ainda mais distante do meu amor

(refrão)
        B        Ebm
Sou teu ego, tua alma
        Abm                         C#
Sou teu céu, o teu inferno a tua calma
            B             Ebm
Eu sou teu tudo, sou teu nada
         B         Ebm
Minha pequena, és minha amada
            B                Ebm
Eu sou o teu mundo, sou teu poder
         B         C#           F#
Sou tua vida, sou meu eu em você
544 exibições

Comentários 0

Composição: Sabe quem é o compositor? Envie pra gente. Contribuição: pedrin
Consegui tocarAinda não conseguiram tocar essa música. Seja o primeiro!
    Não consegui tocar
    Exibir acordes »
    publicidade
    fechar