Best Of You Acoustic

Foo Fighters

 Foo Fighters
Tom: E
		
Tabbed by: Barry Miles
Email: *

than the original recording.

Tuning: Standard (let ring throughout)

                            * (strum lightly)

                                                   I've got another confes-


e|-0-----0-----0---|-0-----0-----0---|-0-----0-----0---|-0-----0-----0---|
B|-0-----0-----0---|-0-----0-----0---|-0-----0-----0---|-0-----0-----0---|
G|-4-4-4-4-4-4-4-4-|-4-4-4-4-4-4-4-4-|-4-4-4-4-4-4-4-4-|-4-4-4-4-4-4-4-4-|
D|-6-6-6-6-6-6-6-6-|-6-6-6-6-6-6-6-6-|-2-2-2-2-2-2-2-2-|-2-2-2-2-2-2-2-2-|
A|-4-4-4-4-4-4-4-4-|-4-4-4-4-4-4-4-4-|-0-0-0-0-0-0-0-0-|-0-0-0-0-0-0-0-0-|
E|-----------------|-----------------|-----------------|-----------------|

 -ion to make,            I'm your fool.              Everyone's    chains
                                                          got their


e|-0-----0-----0---|-0-----0-----0---|-0-----0-----0---|-0-----0-----0---|
B|-0-----0-----0---|-0-----0-----0---|-0-----0-----0---|-0-----0-----0---|
G|-4-4-4-4-4-4-4-4-|-4-4-4-4-4-4-4-4-|-4-4-4-4-4-4-4-4-|-4-4-4-4-4-4-4-4-|
D|-6-6-6-6-6-6-6-6-|-6-6-6-6-6-6-6-6-|-2-2-2-2-2-2-2-2-|-2-2-2-2-2-2-2-2-|
A|-4-4-4-4-4-4-4-4-|-4-4-4-4-4-4-4-4-|-0-0-0-0-0-0-0-0-|-0-0-0-0-0-0-0-0-|
E|-----------------|-----------------|-----------------|-----------------|

  to break                  Holdin' you.              Were you born to resi-


e|-0-----0-----0---|-0-----0-----0---|-0-----0-----0---|-0-----0-----0---|
B|-0-----0-----0---|-0-----0-----0---|-0-----0-----0---|-0-----0-----0---|
G|-4-4-4-4-4-4-4-4-|-4-4-4-4-4-4-4-4-|-4-4-4-4-4-4-4-4-|-4-4-4-4-4-4-4-4-|
D|-4-4-4-4-4-4-4-4-|-4-4-4-4-4-4-4-4-|-2-2-2-2-2-2-2-2-|-2-2-2-2-2-2-2-2-|
A|-2-2-2-2-2-2-2-2-|-2-2-2-2-2-2-2-2-|-0-0-0-0-0-0-0-0-|-0-0-0-0-0-0-0-0-|
E|-----------------|-----------------|-----------------|-----------------|

 -st                       or be abused?              Is someone  the best,
                                                             gettin'


e|-0-----0-----0---|-0-----0-----0---|-0-----0-----0---|-0-----0-----0---|
B|-0-----0-----0---|-0-----0-----0---|-0-----0-----0---|-0-----0-----0---|
G|-4-4-4-4-4-4-4-4-|-4-4-4-4-4-4-4-4-|-4-4-4-4-4-4-4-4-|-4-4-4-4-4-4-4-4-|
D|-6-6-6-6-6-6-6-6-|-1-1-1-1-1-1-1-1-|-2-2-2-2-2-2-2-2-|-2-2-2-2-2-2-2-2-|
A|-4-4-4-4-4-4-4-4-|-2-2-2-2-2-2-2-2-|-0-0-0-0-0-0-0-0-|-0-0-0-0-0-0-0-0-|
E|-----------------|-----------------|-----------------|-----------------|

 the best, the best,   the best of you?               Is someone  the best,
                                                             gettin'


e|-0-----0-----0---|-0-----0-----0---|-0-----0-----0---|-0-----0-----0---|
B|-0-----0-----0---|-0-----0-----0---|-0-----0-----0---|-0-----0-----0---|
G|-4-4-4-4-4-4-4-4-|-4-4-4-4-4-4-4-4-|-4-4-4-4-4-4-4-4-|-4-4-4-4-4-4-4-4-|
D|-6-6-6-6-6-6-6-6-|-1-1-1-1-1-1-1-1-|-2-2-2-2-2-2-2-2-|-2-2-2-2-2-2-2-2-|
A|-4-4-4-4-4-4-4-4-|-2-2-2-2-2-2-2-2-|-0-0-0-0-0-0-0-0-|-0-0-0-0-0-0-0-0-|
E|-----------------|-----------------|-----------------|-----------------|

 the best, the best,   the best of you?


e|-0-----0-----0---|-0-----0-----0---|-0-----0-----0---|-0---------------|
B|-0-----0-----0---|-0-----0-----0---|-0-----0-----0---|-0---------------|
G|-4-4-4-4-4-4-4-4-|-4-4-4-4-4-4-4-4-|-4-4-4-4-4-4-4-4-|-4---------------|
D|-6-6-6-6-6-6-6-6-|-1-1-1-1-1-1-1-1-|-2-2-2-2-2-2-2-2-|-2---------------|
A|-4-4-4-4-4-4-4-4-|-2-2-2-2-2-2-2-2-|-0-0-0-0-0-0-0-0-|-0---------------|
E|-----------------|-----------------|-----------------|-----------------|

   Are you gone   and on to someone   new?                I needed  to hang
                                                              somewhere

                       2. Verse/Chorus (hit strings hard)


e|-0-----0-----0---|-0-----0-----0---|-0-----0-----0---|-0-----0-----0---|
B|-0-----0-----0---|-0-----0-----0---|-0-----0-----0---|-0-----0-----0---|
G|-4-4-4-4-4-4-4-4-|-4-4-4-4-4-4-4-4-|-4-4-4-4-4-4-4-4-|-4-4-4-4-4-4-4-4-|
D|-6-6-6-6-6-6-6-6-|-6-6-6-6-6-6-6-6-|-2-2-2-2-2-2-2-2-|-2-2-2-2-4-4-4-4-|
A|-4-4-4-4-4-4-4-4-|-4-4-4-4-4-4-4-4-|-0-0-0-0-0-0-0-0-|-0-0-0-0-0-0-0-0-|
E|-----------------|-----------------|-----------------|-----------------|

      my head        without your noose.              You gave me    that I
                                                                somethin'


e|-0-----0-----0---|-0-----0-----0---|-0-----0-----0---|-0-----0-----0---|
B|-0-----0-----0---|-0-----0-----0---|-0-----0-----0---|-0-----0-----0---|
G|-4-4-4-4-4-4-4-4-|-4-4-4-4-4-4-4-4-|-4-4-4-4-4-4-4-4-|-4-4-4-4-4-4-4-4-|
D|-6-6-6-6-6-6-6-6-|-6-6-6-6-6-6-6-6-|-2-2-2-2-2-2-2-2-|-2-2-2-2-2-2-2-2-|
A|-4-4-4-4-4-4-4-4-|-4-4-4-4-4-4-4-4-|-0-0-0-0-0-0-0-0-|-0-0-0-0-0-0-0-0-|
E|-----------------|-----------------|-----------------|-----------------|

   didn't have,             but had no use.            I was too     give i-
                                                               weak to


e|-0-----0-----0---|-0-----0-----0---|-0-----0-----0---|-0-----0-----0---|
B|-0-----0-----0---|-0-----0-----0---|-0-----0-----0---|-0-----0-----0---|
G|-4-4-4-4-4-4-4-4-|-4-4-4-4-4-4-4-4-|-4-4-4-4-4-4-4-4-|-4-4-4-4-4-4-4-4-|
D|-1-1-1-1-1-1-x-4-|-4-4-4-4-4-4-4-4-|-2-2-2-2-2-2-2-2-|-2-2-2-2-2-2-2-2-|
A|-2-2-2-2-2-2-4-2-|-2-2-2-2-2-2-2-2-|-0-0-0-0-0-0-0-0-|-0-0-0-0-0-0-0-0-|
E|-----------------|-----------------|-----------------|-----------------|

  -n,                too strong to lose.               My heart is   arrest
                                                                 under


e|-0-----0-----0---|-0-----0-----0---|-0-----0-----0---|-0-----0-----0---|
B|-0-----0-----0---|-0-----0-----0---|-0-----0-----0---|-0-----0-----0---|
G|-4-4-4-4-4-4-4-4-|-4-4-4-4-4-4-4-4-|-4-4-4-4-4-4-4-4-|-4-4-4-4-4-4-4-4-|
D|-6-6-6-6-6-6-6-6-|-6-6-6-6-6-6-6-6-|-2-2-2-2-2-2-2-2-|-2-2-2-2-4-4-4-4-|
A|-4-4-4-4-4-4-4-4-|-4-4-4-4-4-4-4-4-|-0-0-0-0-0-0-0-0-|-0-0-0-0-0-0-0-0-|
E|-----------------|-----------------|-----------------|-----------------|

   again,            but I break loose.               My head is       life
                                                               givin' me


e|-0-----0-----0---|-0-----0-----0---|-0-----0-----0---|-0-----0-----0---|
B|-0-----0-----0---|-0-----0-----0---|-0-----0-----0---|-0-----0-----0---|
G|-4-4-4-4-4-4-4-4-|-4-4-4-4-4-4-4-4-|-4-4-4-4-4-4-4-4-|-4-4-4-4-4-4-4-4-|
D|-6-6-6-6-6-6-6-6-|-6-6-6-6-6-6-6-6-|-2-2-2-2-2-2-2-2-|-2-2-2-2-2-2-2-2-|
A|-4-4-4-4-4-4-4-4-|-4-4-4-4-4-4-4-4-|-0-0-0-0-0-0-0-0-|-0-0-0-0-0-0-0-0-|
E|-----------------|-----------------|-----------------|-----------------|

  or death,         but I can't choose.               I swear I'll      i-
                                                                never give


e|-0-----0-----0---|-0-----0-----0---|-0-----0-----0---|-0-----0-----0---|
B|-0-----0-----0---|-0-----0-----0---|-0-----0-----0---|-0-----0-----0---|
G|-4-4-4-4-4-4-4-4-|-4-4-4-4-4-4-4-4-|-4-4-4-4-4-4-4-4-|-4-4-4-4-4-4-4-4-|
D|-1-1-1-1-1-1-x-4-|-4-4-4-4-4-4-4-4-|-2-2-2-2-2-2-2-2-|-2-2-2-2-2-2-2-2-|
A|-2-2-2-2-2-2-4-2-|-2-2-2-2-2-2-2-2-|-0-0-0-0-0-0-0-0-|-0-0-0-0-0-0-0-0-|
E|-----------------|-----------------|-----------------|-----------------|

  -n,                         I refuse.               Is someone  the best,
                                                             gettin'


e|-0---0---0---0---|-0---0---0---0---|-0---0---0---0---|-0---0---0---0---|
B|-0---0---0---0---|-0---0---0---0---|-0---0---0---0---|-0---0---0---0---|
G|-4-4-4-4-4-4-4-4-|-4-4-4-4-4-4-4-4-|-4-4-4-4-4-4-4-4-|-3-3-3-3-3-3-3-3-|
D|-6-6-6-6-6-6-6-6-|-1-1-1-1-1-1-1-1-|-2-2-2-2-2-2-2-2-|-4-4-4-4-4-4-4-4-|
A|-4-4-4-4-4-4-4-4-|-2-2-2-2-2-2-2-2-|-0-0-0-0-0-0-0-0-|-4-4-4-4-4-4-4-4-|
E|-----------------|-----------------|-----------------|-2-2-2-2-2-2-2-2-|

 the best, the best,   the best of you?               Is someone  the best,
                                                             gettin'


e|-0---0---0---0---|-0---0---0---0---|-0---0---0---0---|-0---0---0---0---|
B|-0---0---0---0---|-0---0---0---0---|-0---0---0---0---|-0---0---0---0---|
G|-4-4-4-4-4-4-4-4-|-4-4-4-4-4-4-4-4-|-4-4-4-4-4-4-4-4-|-3-3-3-3-3-3-3-3-|
D|-6-6-6-6-6-6-6-6-|-1-1-1-1-1-1-1-1-|-2-2-2-2-2-2-2-2-|-4-4-4-4-4-4-4-4-|
A|-4-4-4-4-4-4-4-4-|-2-2-2-2-2-2-2-2-|-0-0-0-0-0-0-0-0-|-4-4-4-4-4-4-4-4-|
E|-----------------|-----------------|-----------------|-2-2-2-2-2-2-2-2-|

 the best, the best,   the best of you?                Has someone   faith,
                                                             taken your


e|-0---0---0---0---|-0---0---0---0---|-0---0---0---0---|-0---0---0---0---|
B|-0---0---0---0---|-0---0---0---0---|-2-2-2-2-2-2-2-2-|-0---0---0---0---|
G|-4-4-4-4-4-4-4-4-|-4-4-4-4-4-4-4-4-|-4-4-4-4-4-4-4-4-|-3-3-3-3-3-3-3-3-|
D|-6-6-6-6-6-6-6-6-|-1-1-1-1-1-1-1-1-|-2-2-2-2-2-2-2-2-|-4-4-4-4-4-4-4-4-|
A|-4-4-4-4-4-4-4-4-|-2-2-2-2-2-2-2-2-|-0-0-0-0-0-0-0-0-|-4-4-4-4-4-4-4-4-|
E|-----------------|-----------------|-----------------|-2-2-2-2-2-2-2-2-|

   it's real, the pain you feel, your trust, confess? Is someone  the best,
                                         you must,           gettin'


e|-0---0---0---0---|-0---0---0---0---|-0---0---0---0---|-0---0---0---0---|
B|-0---0---0---0---|-0---0---0---0---|-2-2-2-2-2-2-2-2-|-2-2-2-2-2-2-2-2-|
G|-4-4-4-4-4-4-4-4-|-4-4-4-4-4-4-4-4-|-4-4-4-4-4-4-4-4-|-3-3-3-3-3-3-3-3-|
D|-6-6-6-6-6-6-6-6-|-1-1-1-1-1-1-1-1-|-2-2-2-2-2-2-2-2-|-4-4-4-4-4-4-4-4-|
A|-4-4-4-4-4-4-4-4-|-2-2-2-2-2-2-2-2-|-0-0-0-0-0-0-0-0-|-4-4-4-4-4-4-4-4-|
E|-----------------|-----------------|-----------------|-2-2-2-2-2-2-2-2-|


                    3. Guitar Solo (timing a little difficult)


   E  S  S  E  E  S  S  E  E  S  S    E  S  S  E  E  S  S  E  E  S  S

e|-0--0--0--0--0--0--0--0--0--0--0--|-0--0--0--0--0--0--0--0--0--0--0--|
B|-0--0--0--0--0--0--0--0--0--0--0--|-0--0--0--0--0--0--0--0--0--0--0--|
G|-13-13-13-13-13-13-13-13-13-13-13-|-13-13-13-13-16-16-16-13-13-16-16-|
D|-x--x--x--x--x--x--x--x--x--x--x--|-x--x--x--x--x--x--x--x--x--x--x--|
A|-11-11-11-11-11-11-11-11-11-11-11-|-11-11-11-11-14-14-14-11-11-14-14-|
E|----------------------------------|----------------------------------|


   E  S  S  E  E  S  S  E  E  S  S    E  S  S  E  E  E   E E E E E E

e|-0--0--0--0--0--0--0--0--0--0--0--|-0--0--0--0--0--0---------------|
B|-0--0--0--0--0--0--0--0--0--0--0--|-0--0--0--0--0--0---------------|
G|-18-18-18-18-18-16-16-16-16-16-16-|-16-16-16-16-16-18\-------------|
D|-x--x--x--x--x--x--x--x--x--x--x--|-x--x--x--x--x--x---------------|
A|-16-16-16-16-16-14-14-14-14-14-14-|-14-14-14-14-14-16\-------------|
E|----------------------------------|--------------------0-0-0-0-0-0-|


   E  S  S  E  E  S  S  E  E  S  S    E  S  S  E  E  S  S  E  E  S  S

e|-0--0--0--0--0--0--0--0--0--0--0--|-0--0--0--0--0--0--0--0--0--0--0--|
B|-0--0--0--0--0--0--0--0--0--0--0--|-0--0--0--0--0--0--0--0--0--0--0--|
G|-13-13-13-13-13-13-13-13-13-13-13-|-13-13-13-13-16-16-16-13-13-16-16-|
D|-x--x--x--x--x--x--x--x--x--x--x--|-x--x--x--x--x--x--x--x--x--x--x--|
A|-11-11-11-11-11-11-11-11-11-11-11-|-11-11-11-11-14-14-14-11-11-14-14-|
E|----------------------------------|----------------------------------|


   E  S  S  E  E  S  S  E  E  S  S    E  S  S  E  E  S  S  E  E  S  S

e|-0--0--0--0--0--0--0--0--0--0--0--|-0--0--0--0--0--0--0--0--0--0--0--|
B|-0--0--0--0--0--0--0--0--0--0--0--|-0--0--0--0--0--0--0--0--0--0--0--|
G|-18-18-18-18-18-18-18-18-18-18-18-|-18-18-18-18-18-18-18-18-18-18-18-|
D|-x--x--x--x--x--x--x--x--x--x--x--|-x--x--x--x--x--x--x--x--x--x--x--|
A|-16-16-16-16-16-16-16-16-16-16-16-|-16-16-16-16-16-16-16-16-16-16-16-|
E|----------------------------------|-14-14-14-14-14-14-14-14-14-14-14-|


   E  S  S  E  E  S  S  E  E E   E S S E E S S E E E

e|-0--0--0--0--0--0--0--0--0-0-|-0-0-0-0-0-0-0-0-0-0-|
B|-0--0--0--0--0--0--0--0--0-0-|-0-0-0-0-0-0-0-0-0-0-|
G|-11-11-11-11-11-11-11-11-9-8-|-8-8-8-8-8-8-8-8-8-8-|
D|-x--x--x--x--x--x--x--x--x-x-|-x-x-x-x-x-x-x-x-x-x-|
A|-9--9--9--9--9--9--9--9--7-6-|-6-6-6-6-6-6-6-6-6-6-|
E|-----------------------------|---------------------|


   E  S  S  E  E  S  S  E  E  E   E S S E E E E S E.

e|-0--0--0--0--0--0--0--0--0--0-|-0-0-0-0-0-------0--|
B|-0--0--0--0--0--0--0--0--0--0-|-0-0-0-0-0-------0--|
G|-13-13-13-13-13-13-13-13-11-9-|-8-8-8-8-8-x-x-x-9--|
D|-x--x--x--x--x--x--x--x--x--x-|-x-x-x-x-x-x-x-x-x--|
A|-11-11-11-11-11-11-11-11-9--7-|-7-7-7-7-7-x-x-x-7--|
E|------------------------------|-----------0-0-0-0--|


   E  S  S  E  E  S  S  E  E E   E S S E E S S E E E

e|-0--0--0--0--0--0--0--0--0-0-|-0-0-0-0-0-0-0-0-0-0-|
B|-0--0--0--0--0--0--0--0--0-0-|-0-0-0-0-0-0-0-0-0-0-|
G|-11-11-11-11-11-11-11-11-9-8-|-8-8-8-8-8-8-8-8-8-8-|
D|-x--x--x--x--x--x--x--x--x-x-|-x-x-x-x-x-x-x-x-x-x-|
A|-9--9--9--9--9--9--9--9--7-6-|-6-6-6-6-6-6-6-6-6-6-|
E|-----------------------------|---------------------|


   E  S  S  E  E  S  S  E  E  E    E  S  S  E  E  H

e|-0--0--0--0--0--0--0--0--0--0--|-0--0--0--0--0--0----------|
B|-0--0--0--0--0--0--0--0--0--0--|-0--0--0--0--0--0----------|
G|-13-13-13-13-13-13-13-13-13-13-|-13-13-13-13-13-13\--------|
D|-x--x--x--x--x--x--x--x--x--x--|-x--x--x--x--x--x----------|
A|-11-11-11-11-11-11-11-11-11-11-|-11-11-11-11-11-11\--------|
E|-------------------------------|---------------------------|

                                                 taken

                               3. Chorus


e|-0---------------|-0---------------|-0---------------|-0---------------|
B|-0---------------|-0---------------|-0---------------|-0---------------|
G|-4---------------|-4---------------|-4---------------|-3---------------|
D|-6---------------|-1---------------|-2---------------|-4---------------|
A|-4---------------|-2---------------|-0---------------|-4---------------|
E|-----------------|-----------------|-----------------|-2---------------|

     it's real, the pain you feel, the life, the love, you die to heal? The

                                                           P.*|

e|-0---------------|-0---------------|-0---------------|-0---------------|
B|-0---------------|-0---------------|-0---------------|-0---------------|
G|-4---------------|-4---------------|-4---------------|-3-3-3-3-3-3-3-3-|
D|-6---------------|-1---------------|-2---------------|-4-4-4-4-4-4-4-4-|
A|-4---------------|-2---------------|-0---------------|-4-4-4-4-4-4-4-4-|
E|-----------------|-----------------|-----------------|-2-2-2-2-2-2-2-2-|

  hope that starts the          your trust,  confess? Is someone  the best,
                    broken hearts,     you must,             gettin'


e|-0---0---0---0---|-0---0---0---0---|-0---0---0---0---|-0---0---0---0---|
B|-0---0---0---0---|-0---0---0---0---|-2-2-2-2-2-2-2-2-|-0---0---0---0---|
G|-4-4-4-4-4-4-4-4-|-4-4-4-4-4-4-4-4-|-4-4-4-4-4-4-4-4-|-3-3-3-3-3-3-3-3-|
D|-6-6-6-6-6-6-6-6-|-1-1-1-1-1-1-1-1-|-2-2-2-2-2-2-2-2-|-4-4-4-4-4-4-4-4-|
A|-4-4-4-4-4-4-4-4-|-2-2-2-2-2-2-2-2-|-0-0-0-0-0-0-0-0-|-4-4-4-4-4-4-4-4-|
E|-----------------|-----------------|-----------------|-2-2-2-2-2-2-2-2-|

the best, the best,   the best of you?               Is someone  the best,
                                                             gettin'


e|-0---0---0---0---|-0---0---0---0---|-0---0---0---0---|-0---0---0---0---|
B|-0---0---0---0---|-0---0---0---0---|-2-2-2-2-2-2-2-2-|-2-2-2-2-2-2-2-2-|
G|-4-4-4-4-4-4-4-4-|-4-4-4-4-4-4-4-4-|-4-4-4-4-4-4-4-4-|-3-3-3-3-3-3-3-3-|
D|-6-6-6-6-6-6-6-6-|-1-1-1-1-1-1-1-1-|-2-2-2-2-2-2-2-2-|-4-4-4-4-4-4-4-4-|
A|-4-4-4-4-4-4-4-4-|-2-2-2-2-2-2-2-2-|-0-0-0-0-0-0-0-0-|-4-4-4-4-4-4-4-4-|
E|-----------------|-----------------|-----------------|-2-2-2-2-2-2-2-2-|

the best, the best,   the best of you?                I've got     confes-
                                                             another

                          4. Bridge (strum lightly)


e|-0---------------|-------0---------|-------0---------|-------0---------|
B|-0-------------0-|-------0-------0-|-------0-------0-|-------0-------0-|
G|-4---------4---4-|-----4-4---4---4-|-----4-4---4---4-|-----4-4---4---4-|
D|-6---------6-6-6-|-6---6-6---6-6-6-|-2---2-2---2-2-2-|-2---2-2---2-2-2-|
A|-4---------4-4-4-|-4---4-----4-4-4-|-0---0-----0-0-0-|-0---0-----0-0-0-|
E|-----------------|-----------------|-----------------|-----------------|

-ion to make,            I'm  no  fool.              I'm gettin'   start-
                                                           tired of


e|-------0---------|-------0---------|-------0---------|-------0---------|
B|-------0-------0-|-------0-------0-|-------0-------0-|-------0-------0-|
G|-----4-4---4---4-|-----4-4---4---4-|-----4-4---4---4-|-----4-4---4---4-|
D|-6---6-6---6-6-6-|-6---6-6---6-6-6-|-2---2-2---2-2-2-|-2---2-2---2-2-2-|
A|-4---4-----4-4-4-|-4---4-----4-4-4-|-0---0-----0-0-0-|-0---0-----0-0-0-|
E|-----------------|-----------------|-----------------|-----------------|

 -in again                somewhere   new.            Were you born to resi-

*(strike chord hard, then strum harder until next chord)

   *                                   *

e|-0---------------|-----------------|-0---------------|-----------------|
B|-0---------------|-----------------|-0---------------|-----------------|
G|-4---4-4-4-4-4-4-|-4-4-4-4-4-4-4-4-|-4---4-4-4-4-4-4-|-4-4-4-4-4-4-4-4-|
D|-4---4-4-4-4-4-4-|-4-4-4-4-4-4-4-4-|-2---2-2-2-2-2-2-|-2-2-2-2-2-2-2-2-|
A|-2---2-2-2-2-2-2-|-2-2-2-2-2-2-2-2-|-0---0-0-0-0-0-0-|-0-0-0-0-0-0-0-0-|
E|-----------------|-----------------|-----------------|-----------------|

 -ist                       or be abused?                I swear    give i-
                                                             I'll never

   *                                                       (silence)

e|-0---------------|-----------------|-0---0---0---0---|-0---------------|
B|-0---------------|-----------------|-0---0---0---0---|-0---------------|
G|-4---4-4-4-4-4-4-|-4-4-4-4-4-4-4-4-|-4-4-4-4-4-4-4-4-|-4---------------|
D|-4---4-4-4-4-4-4-|-4-4-4-4-4-4-4-4-|-2-2-2-2-2-2-2-2-|-2---------------|
A|-2---2-2-2-2-2-2-|-2-2-2-2-2-2-2-2-|-0-0-0-0-0-0-0-0-|-0---------------|
E|-----------------|-----------------|-----------------|-----------------|

 -n,                             I refuse.               Is someone  the best,
                                                                gettin'

                                 *


e|-0---0---0---0---|-0---0---0---0---|-0---0---0---0---|-0---0---0---0---|
B|-0---0---0---0---|-0---0---0---0---|-0---0---0---0---|-0---0---0---0---|
G|-4-4-4-4-4-4-4-4-|-4-4-4-4-4-4-4-4-|-4-4-4-4-4-4-4-4-|-3-3-3-3-3-3-3-3-|
D|-6-6-6-6-6-6-6-6-|-1-1-1-1-1-1-1-1-|-2-2-2-2-2-2-2-2-|-4-4-4-4-4-4-4-4-|
A|-4-4-4-4-4-4-4-4-|-2-2-2-2-2-2-2-2-|-0-0-0-0-0-0-0-0-|-4-4-4-4-4-4-4-4-|
E|-----------------|-----------------|-----------------|-2-2-2-2-2-2-2-2-|

 the best, the best,   the best of you?               Is someone  the best,
                                                             gettin'


e|-0---0---0---0---|-0---0---0---0---|-0---0---0---0---|-0---0---0---0---|
B|-0---0---0---0---|-0---0---0---0---|-0---0---0---0---|-0---0---0---0---|
G|-4-4-4-4-4-4-4-4-|-4-4-4-4-4-4-4-4-|-4-4-4-4-4-4-4-4-|-3-3-3-3-3-3-3-3-|
D|-6-6-6-6-6-6-6-6-|-1-1-1-1-1-1-1-1-|-2-2-2-2-2-2-2-2-|-4-4-4-4-4-4-4-4-|
A|-4-4-4-4-4-4-4-4-|-2-2-2-2-2-2-2-2-|-0-0-0-0-0-0-0-0-|-4-4-4-4-4-4-4-4-|
E|-----------------|-----------------|-----------------|-2-2-2-2-2-2-2-2-|

 the best, the best,   the best of you?                Has someone   faith,
                                                             taken your


e|-0---0---0---0---|-0---0---0---0---|-0---0---0---0---|-0---0---0---0---|
B|-0---0---0---0---|-0---0---0---0---|-2-2-2-2-2-2-2-2-|-0---0---0---0---|
G|-4-4-4-4-4-4-4-4-|-4-4-4-4-4-4-4-4-|-4-4-4-4-4-4-4-4-|-3-3-3-3-3-3-3-3-|
D|-6-6-6-6-6-6-6-6-|-1-1-1-1-1-1-1-1-|-2-2-2-2-2-2-2-2-|-4-4-4-4-4-4-4-4-|
A|-4-4-4-4-4-4-4-4-|-2-2-2-2-2-2-2-2-|-0-0-0-0-0-0-0-0-|-4-4-4-4-4-4-4-4-|
E|-----------------|-----------------|-----------------|-2-2-2-2-2-2-2-2-|

   it's real, the pain you feel, your trust, confess? Is someone  the best,
                                         you must,           gettin'


e|-0---0---0---0---|-0---0---0---0---|-0---0---0---0---|-0---0---0---0---|
B|-0---0---0---0---|-0---0---0---0---|-2-2-2-2-2-2-2-2-|-2-2-2-2-2-2-2-2-|
G|-4-4-4-4-4-4-4-4-|-4-4-4-4-4-4-4-4-|-4-4-4-4-4-4-4-4-|-3-3-3-3-3-3-3-3-|
D|-6-6-6-6-6-6-6-6-|-1-1-1-1-1-1-1-1-|-2-2-2-2-2-2-2-2-|-4-4-4-4-4-4-4-4-|
A|-4-4-4-4-4-4-4-4-|-2-2-2-2-2-2-2-2-|-0-0-0-0-0-0-0-0-|-4-4-4-4-4-4-4-4-|
E|-----------------|-----------------|-----------------|-2-2-2-2-2-2-2-2-|


                                 *

Q - quarter note

   E. S E  E. S S S S S S S   E. S E  E. S S S S S S S

e|--------------------------|--------------------------|
B|--------------------------|--------------------------|
G|-6-------6----------------|-6-------6----------------|
D|-x-------x----------------|-x-------x----------------|
A|-4-------4----------------|-4-------4----------------|
E|----0-0-----0-0-0-0-0-0-0-|----0-0-----0-0-0-0-0-0-0-|


   E. S E  E. S S S S S S S   E. S E  E. S S S S S S S

e|--------------------------|--------------------------|
B|--------------------------|--------------------------|
G|-6-------6----------------|-6-------6----------------|
D|-x-------x----------------|-x-------x----------------|
A|-4-------4----------------|-4-------4----------------|
E|----0-0-----0-0-0-0-0-0-0-|----0-0-----0-0-0-0-0-0-0-|


   E. S E  E. S S S S S S S   E. S E  E. S S S S S S S

e|--------------------------|--------------------------|
B|--------------------------|--------------------------|
G|-13------13---------------|-13------13---------------|
D|-x-------x----------------|-x-------x----------------|
A|-11------11---------------|-11------11---------------|
E|----0-0-----0-0-0-0-0-0-0-|----0-0-----0-0-0-0-0-0-0-|


   E. S E  E. S S S S S S S   E. S E  Q    (silence)

e|--------------------------|--------------------------|
B|--------------------------|--------------------------|
G|-16------16---------------|-16------18---------------|
D|-x-------x----------------|-x-------x----------------|
A|-14------14---------------|-14------16---------------|
E|----0-0-----0-0-0-0-0-0-0-|----0-0-------------------|


| /  slide up
| \  slide down
| h  hammer-on
| p  pull-off
| ~  vibrato
| +  harmonic
| x  Mute note
===============================================================================
Texto Colunas
Alterar tom ½ tom ½ tom
afinação acordes na letra esconder tabs mais »
127.543 exibições

Comentários 1

  • felipenor felipenor: Postado em 31/07/2011 18:42

    devia coloca a letra separada pra pode tocar e cantar!; )

  1. Até Você Voltar - Henrique e Juliano Manteve-se 100.972 exibições
  2. Domingo de Manhã - Marcos e Belutti Manteve-se 81.304 exibições
  3. Cuida Bem Dela - Henrique e Juliano Manteve-se 57.181 exibições
  4. Choram As Rosas - Bruno e Marrone Manteve-se 48.428 exibições
  5. Tudo Que Você Quiser - Luan Santana Manteve-se 48.042 exibições
  6. Recaídas - Henrique e Juliano Manteve-se 44.108 exibições
  7. Raridade - Anderson Freire Manteve-se 36.435 exibições
  8. Pra Você - Onze:20 Manteve-se 34.752 exibições
  9. Só Os Loucos Sabem - Charlie Brown Jr. Manteve-se 32.854 exibições
  10. Logo Eu - Jorge e Mateus Manteve-se 31.064 exibições
  1. Henrique e Juliano- Manteve-se 295.487 exibições
  2. Jorge e Mateus- Manteve-se 231.631 exibições
  3. Legião Urbana- Manteve-se 210.234 exibições
  4. Bruno e Marrone- Manteve-se 169.326 exibições
  5. Charlie Brown Jr.- Manteve-se 154.960 exibições
  6. Luan Santana- Manteve-se 148.363 exibições
  7. Fernandinho- Manteve-se 119.730 exibições
  8. Marcos e Belutti- Manteve-se 99.275 exibições
  9. Thalles Roberto- Manteve-se 93.554 exibições
  10. Aline Barros- Manteve-se 82.429 exibições
Exibir acordes »

Cifras e tabs

Fórum Cifra Club

Aprenda

Cifra Club News

Mais Serviços Cifra Club ID

Studio Sol

©1996 - 2014 Cifra Club · o primeiro, maior e mais acessado do Brasil · 339 mil músicas · 6.3 milhões pessoas cadastradas

publicidade
fechar