Foo Fighters

The Pretender

272.183 exibições
Tom: E
Intro Riff

Guitar 2  (Chris)

E|----------------7-------------|-----------------------------||
B|------------10-----10---------|-----------------------------||
G|---------9-------------9------|---------9------9------9-----||
D|-----10-------------------10--|-----------------------------||
A|--0---------------------------|--0----------------0------9--||
E|------------------------------|-----7------8----------------||


E|-----------------------------|----------------0-------------||
B|-------------10--------------|------------10-----10---------||
G|----------9------------------|---------9-------------9------||
D|------10---------------------|-----10-------------------10--|| x 3
A|---------------(9)-9b--9--8--|------------------------------||
E|-----------------------------|------------------------------||



Verse
Guitar 1 (Dave) {Palm Mute these chords the 4th time round}

E|--0-0---------0-0-0-0-------------|--0-0----------0-0-0-0-----------||
B|--1-1---------1-1-1-1-------------|--1-1----------1-1-1-1-----------||
G|--2-2---------2-2-2-2-------------|--2-2----------2-2-2-2-----------||
D|--2-2---------2-2-2-2-------------|--2-2----------2-2-2-2-----------||
A|--0-0---------0-0-0-0-------------|--0-0----------0-0-0-0-----------||
E|----------------------------------|---------------------------------||


E|----------------------------------|---------------------------------||
B|--1-1---------1-1-1-1-------------|---------------------------------||
G|--2-2---------2-2-2-2-------------|--0-0----------0-0-0-0-----------||x4
D|--0-0---------0-0-0-0-------------|--3-3----------3-3-3-3-----------||
A|--0-0---------0-0-0-0-------------|--3-3----------3-3-3-3-----------||
E|--2-2---------2-2-2-2-------------|--1-1----------1-1-1-1-----------||


Guitar 1 {Beetween 2nd and 3rd time; 3rd and 4th time; after the last time}

D|-----------||
D|-----------||
D|-----------||
D|-----------||
A|--3---5----||
E|--1-0-3----||


Guitar 2

E|--0-0-2-0-3-0-5-0---0-2-0-3-0-5~-||
B|--5-5-5-5-5-5-5-5---5-5-5-5-5-5~-||
G|---------------------------------||
D|---------------------------------|| x9
A|---------------------------------||
E|---------------------------------||



Pre Chorus
Guitar 1

E|-2~-----------------------------------||
B|-3~-----------------------------------||
G|-2~-----------------------------------||
D|-0~-----------------------------------||
A|--------------------------------------||
E|--------------------------------------||


Guitar 2

E|------------------------------------------|
B|------------------------------------------|
G|--7-7-7-7-9-9-9-9-11-11-11-11-12-12-12-12-|
D|--x-x-x-x-x-x-x-x--x--x--x--x--x--x--x--x-|
A|--5-5-5-5-7-7-7-7--9--9--9--9-10-10-10-10-|
E|------------------------------------------|



Chorus
Guitar 1

E|--7--7--7--7--7--7--7--7--7--7--7--7--7--7--7--7-||
B|-10-10-10-10-10-10-10-10-10-10-10-10-10-10-10-10-||
G|--9--9--9--9--9--9--9--9--9--9--9--9--9--9--9--9-||
D|-10-10-10-10-10-10-10-10-10-10-10-10-10-10-10-10-||
A|--0--0--0--0--0--0--0--0--0--0--0--0--0--0--0--0-||
E|-------------------------------------------------||


E|--7--7--0--0--0--0--0--0--0--0--0--0--0--0--0--0-||
B|-10-10-10-10-10-10-10-10-10-10-10-10-10-10-10-10-||
G|--9--9--9--9--9--9--9--9--9--9--9--9--9--9--9--9-||
D|-10-10-10-10-10-10-10-10-10-10-10-10-10-10-10-10-||
A|--0--0--X--X--X--X--X--X--X--X--0--0--0--0--9--9-||
E|--------7--7--7--7--8--8--8--8--X--X--X--X-------||


E|--0--0--0--0--0--0--0--0--0--0--0--0--0--0--0--0-||
B|-10-10-10-10-10-10-10-10-10-10-10-10-10-10-10-10-||
G|--9--9--9--9--9--9--9--9--9--9--9--9--9--9--9--9-||
D|-10-10-10-10-10-10-10-10-10-10-10-10-10-10-10-10-||
A|--9--9--9--9--9--9--9--9--9--9--9--9--9--9--9--9-||
E|-------------------------------------------------||


E|--0--0--0--0--0--0--0--0--0--0--0--0--0--0--0--0-||
B|-10-10-10-10-10-10-10-10-10-10-10-10-10-10-10-10-||
G|--9--9--9--9--9--9--9--9--9--9--9--9--9--9--9--9-|| x 2
D|-10-10-10-10-10-10-10-10-10-10-10-10-10-10-10-10-||
A|--8--8--8--8--8--8--8--8--8--8--8--8--8--8--8--8-||
E|-------------------------------------------------||


Guitar 2

  {A B C A F# F}
E|--------------------------------------||
B|--------------------------------------||
G|--------------------------------------||
D|-777777777777777777779999101010107777-||
A|-xxxxxxxxxxxxxxxxxxxxxxxxx-x-x-x-xxxx-||
E|-5555555555555555555577778-8-8-8-5555-||


E|------------------------------------||
B|------------------------------------||
G|------------------------------------||
D|-4-4-4-4-4-4-4-4-4-4-4-4-4-4-4-4-4--||
A|-x-x-x-x-x-x-x-x-x-x-x-x-x-x-x-x-x--||
E|-2-2-2-2-2-2-2-2-2-2-2-2-2-2-2-2-2--||


E|------------------------------------||
B|------------------------------------||
G|------------------------------------|| x 2
D|-3-3-3-3-3-3-3-3-3-3-3-3-3-3-3-3-3--||
A|-x-x-x-x-x-x-x-x-x-x-x-x-x-x-x-x-x--||
E|-1-1-1-1-1-1-1-1-1-1-1-1-1-1-1-1-1--||



Post Chorus
Guitar 2

E|----------------------------------||
B|----------------------------------||
G|----------------2-----------------|| x 1
D|--2-X-4-X-5-X-4-2-X-X-4-X-5-X-7\--||
A|--0-0-0-0-0-0-0-0-0-0-0-0-0-0-0---||
E|----------------------------------||



Verse
Guitar 1 {Palm Mute these chords the 2nd time round}

E|--0-0---------0-0-0-0-------------|--0-0----------0-0-0-0-----------||
B|--1-1---------1-1-1-1-------------|--1-1----------1-1-1-1-----------||
G|--2-2---------2-2-2-2-------------|--2-2----------2-2-2-2-----------||
D|--2-2---------2-2-2-2-------------|--2-2----------2-2-2-2-----------||
A|--0-0---------0-0-0-0-------------|--0-0----------0-0-0-0-----------||
E|----------------------------------|---------------------------------||


E|----------------------------------|---------------------------------||
B|--1-1---------1-1-1-1-------------|---------------------------------||
G|--2-2---------2-2-2-2-------------|--0-0----------0-0-0-0-----------||x2
D|--0-0---------0-0-0-0-------------|--3-3----------3-3-3-3-----------||
A|--0-0---------0-0-0-0-------------|--3-3----------3-3-3-3-----------||
E|--2-2---------2-2-2-2-------------|--1-1----------1-1-1-1-----------||


Guitar 1 {Beetween 1st and 2nd time; after the last time}

D|-----------||
D|-----------||
D|-----------||
D|-----------||
A|--3---5----||
E|--1-0-3----||


Guitar 2

E|--0-0-2-0-3-0-5-0---0-2-0-3-0-5--||
B|--5-5-5-5-5-5-5-5---5-5-5-5-5-5--||
G|---------------------------------||
D|---------------------------------||
A|---------------------------------||
E|---------------------------------||



Pre Chorus
Guitar 1

E|-2~-----------------------------------||
B|-3~-----------------------------------||
G|-2~-----------------------------------||
D|-0~-----------------------------------||
A|--------------------------------------||
E|--------------------------------------||


Guitar 2

E|------------------------------------------|
B|------------------------------------------|
G|--7-7-7-7-9-9-9-9-11-11-11-11-12-12-12-12-|
D|--x-x-x-x-x-x-x-x--x--x--x--x--x--x--x--x-|
A|--5-5-5-5-7-7-7-7--9--9--9--9-10-10-10-10-|
E|------------------------------------------|



Chorus
Guitar 1

E|--7--7--7--7--7--7--7--7--7--7--7--7--7--7--7--7-||
B|-10-10-10-10-10-10-10-10-10-10-10-10-10-10-10-10-||
G|--9--9--9--9--9--9--9--9--9--9--9--9--9--9--9--9-||
D|-10-10-10-10-10-10-10-10-10-10-10-10-10-10-10-10-||
A|--0--0--0--0--0--0--0--0--0--0--0--0--0--0--0--0-||
E|-------------------------------------------------||


E|--7--7--0--0--0--0--0--0--0--0--0--0--0--0--0--0-||
B|-10-10-10-10-10-10-10-10-10-10-10-10-10-10-10-10-||
G|--9--9--9--9--9--9--9--9--9--9--9--9--9--9--9--9-||
D|-10-10-10-10-10-10-10-10-10-10-10-10-10-10-10-10-||
A|--0--0--X--X--X--X--X--X--X--X--0--0--0--0--9--9-||
E|--------7--7--7--7--8--8--8--8--X--X--X--X-------||


E|--0--0--0--0--0--0--0--0--0--0--0--0--0--0--0--0-||
B|-10-10-10-10-10-10-10-10-10-10-10-10-10-10-10-10-||
G|--9--9--9--9--9--9--9--9--9--9--9--9--9--9--9--9-||
D|-10-10-10-10-10-10-10-10-10-10-10-10-10-10-10-10-||
A|--9--9--9--9--9--9--9--9--9--9--9--9--9--9--9--9-||
E|-------------------------------------------------||


E|--0--0--0--0--0--0--0--0--0--0--0--0--0--0--0--0-||
B|-10-10-10-10-10-10-10-10-10-10-10-10-10-10-10-10-||
G|--9--9--9--9--9--9--9--9--9--9--9--9--9--9--9--9-|| x 2
D|-10-10-10-10-10-10-10-10-10-10-10-10-10-10-10-10-||
A|--8--8--8--8--8--8--8--8--8--8--8--8--8--8--8--8-||
E|-------------------------------------------------||


Guitar 2

  {A B C A F# F}
E|--------------------------------------||
B|--------------------------------------||
G|--------------------------------------||
D|-777777777777777777779999101010107777-||
A|-xxxxxxxxxxxxxxxxxxxxxxxxx-x-x-x-xxxx-||
E|-5555555555555555555577778-8-8-8-5555-||


E|------------------------------------||
B|------------------------------------||
G|------------------------------------||
D|-4-4-4-4-4-4-4-4-4-4-4-4-4-4-4-4-4--||
A|-x-x-x-x-x-x-x-x-x-x-x-x-x-x-x-x-x--||
E|-2-2-2-2-2-2-2-2-2-2-2-2-2-2-2-2-2--||


E|------------------------------------||
B|------------------------------------||
G|------------------------------------|| x 2
D|-3-3-3-3-3-3-3-3-3-3-3-3-3-3-3-3-3--||
A|-x-x-x-x-x-x-x-x-x-x-x-x-x-x-x-x-x--||
E|-1-1-1-1-1-1-1-1-1-1-1-1-1-1-1-1-1--||



Post Chorus
Guitar 1

E|-2~-----------------------------------||
B|-3~-----------------------------------||
G|-2~-----------------------------------||
D|-0~-----------------------------------||
A|--------------------------------------||
E|--------------------------------------||


Guitar 2

E|------------------------------------------|
B|------------------------------------------|
G|--7-7-7-7-9-9-9-9-11-11-11-11-12-12-12-12-|
D|--x-x-x-x-x-x-x-x--x--x--x--x--x--x--x--x-|
A|--5-5-5-5-7-7-7-7--9--9--9--9-10-10-10-10-|
E|------------------------------------------|


BRIDGE

Guitar 2
Bridge Part 1

E|----------------------------------||
B|----------------------------------||
G|----------------2-----------------|| x 6
D|--2-X-4-X-5-X-4-2-X-X-4-X-5-X-7\--||
A|--0-0-0-0-0-0-0-0-0-0-0-0-0-0-0---||
E|----------------------------------||


Guitar 2
Bridge Part 2

E|--------------------------||
B|--------------------------||
G|--------------------------|| x 4
D|--10~---10-9-----7--5-----||
A|--0~~---0--0--0--0--0-----||
E|--------------------------||


Guitar 2
Bridge Part 3

E|--------------------------||
B|--------------------------||
G|--------------------------|| x 4
D|-12----12-10-X--9--10-----||
A|-0--0--0--0--0--0--0--0---||
E|--------------------------||


Guitar 2
Bridge Part 4

E|--------------------------||
B|--------------------------||
G|-----------12----14-------|| x 8
D|--14----14-X--X--X--12----||
A|--0--0--0--0--0--0--0-----||
E|--------------------------||


Guitar 1 {after part 4 is played 4 times}

E|--0-0-0-0-0-0-0-0-0-0-0--||
B|--1-1-1-1-1-1-1-1-1-1-1--||
G|--2-2-2-2-2-2-2-2-2-2-2--|| x 4
D|--2-2-2-2-2-2-2-2-2-2-2--||
A|--0-0-0-0-0-0-0-0-0-0-0--||
E|-------------------------||


Guitar 2

E|----------------7-------------|-----------------------------||
B|------------10-----10---------|-----------------------------||
G|---------9-------------9------|---------9------9------9-----||
D|-----10-------------------10--|-----------------------------||
A|--0---------------------------|--0----------------0------9--||
E|------------------------------|-----7------8----------------||


E|-----------------------------|------------(0)---------------||
B|-------------10--------------|------------10----------------||
G|----------9------------------|---------9--------------------|| x 1
D|------10---------------------|-----10-----------------------||
A|---------------(9)-9b--9--8--|------------------------------||
E|-----------------------------|------------------------------||



Last Chorus
Guitar 1

E|--7--7--7--7--7--7--7--7--7--7--7--7--7--7--7--7-||
B|-10-10-10-10-10-10-10-10-10-10-10-10-10-10-10-10-||
G|--9--9--9--9--9--9--9--9--9--9--9--9--9--9--9--9-||
D|-10-10-10-10-10-10-10-10-10-10-10-10-10-10-10-10-||
A|--0--0--0--0--0--0--0--0--0--0--0--0--0--0--0--0-||
E|-------------------------------------------------||


E|--7--7--0--0--0--0--0--0--0--0--0--0--0--0--0--0-||
B|-10-10-10-10-10-10-10-10-10-10-10-10-10-10-10-10-||
G|--9--9--9--9--9--9--9--9--9--9--9--9--9--9--9--9-||
D|-10-10-10-10-10-10-10-10-10-10-10-10-10-10-10-10-||
A|--0--0--X--X--X--X--X--X--X--X--0--0--0--0--9--9-||
E|--------7--7--7--7--8--8--8--8--X--X--X--X-------||


E|--0--0--0--0--0--0--0--0--0--0--0--0--0--0--0--0-||
B|-10-10-10-10-10-10-10-10-10-10-10-10-10-10-10-10-||
G|--9--9--9--9--9--9--9--9--9--9--9--9--9--9--9--9-||
D|-10-10-10-10-10-10-10-10-10-10-10-10-10-10-10-10-||
A|--9--9--9--9--9--9--9--9--9--9--9--9--9--9--9--9-||
E|-------------------------------------------------||


E|--0--0--0--0--0--0--0--0--0--0--0--0--0--0--0--0-||
B|-10-10-10-10-10-10-10-10-10-10-10-10-10-10-10-10-||
G|--9--9--9--9--9--9--9--9--9--9--9--9--9--9--9--9-|| x 4
D|-10-10-10-10-10-10-10-10-10-10-10-10-10-10-10-10-||
A|--8--8--8--8--8--8--8--8--8--8--8--8--8--8--8--8-||
E|-------------------------------------------------||



Guitar 2 Last chorus

  {A B C A F# F}
E|--------------------------------------||
B|--------------------------------------||
G|--------------------------------------||
D|-777777777777777777779999101010107777-||
A|-xxxxxxxxxxxxxxxxxxxxxxxxx-x-x-x-xxxx-||
E|-5555555555555555555577778-8-8-8-5555-||


E|------------------------------------||
B|------------------------------------||
G|------------------------------------||
D|-4-4-4-4-4-4-4-4-4-4-4-4-4-4-4-4-4--||
A|-x-x-x-x-x-x-x-x-x-x-x-x-x-x-x-x-x--||
E|-2-2-2-2-2-2-2-2-2-2-2-2-2-2-2-2-2--||


E|------------------------------------||
B|------------------------------------||
G|------------------------------------|| x 2
D|-3-3-3-3-3-3-3-3-3-3-3-3-3-3-3-3-3--||
A|-x-x-x-x-x-x-x-x-x-x-x-x-x-x-x-x-x--||
E|-1-1-1-1-1-1-1-1-1-1-1-1-1-1-1-1-1--||


E|---------------------------------||
B|---------------------------------||
G|-9-9-9-9-9-9-9-9-9-9-9-9-9-9-9-9-||
D|-x-x-x-x-x-x-x-x-x-x-x-x-x-x-x-x-||
A|-7-7-7-7-7-7-7-7-7-7-7-7-7-7-7-7-||
E|---------------------------------||


E|------------------------------------------------||
B|------------------------------------------------||
G|-9-9-11-11-11-11-12-12-12-12--9--9--9--9-11-11--||
D|-x-x--x--x--x--x--x--x--x--x--x--x--x--x--x--x--||
A|-7-7--9--9--9--9-10-10-10-10--7--7--7--7--9--9--||
E|------------------------------------------------||


E|------------------------------------------------||
B|------------------------------------------------||
G|-11-11-11-11-11-11-11-11-11-11-9-9-11-11-12-12--||
D|--x--x--x--x--x--x--x--x--x--x-x-x--x--x--x--x--||
A|--9--9--9--9--9--9--9--9--9--9-7-7--9--9-10-10--||
E|------------------------------------------------||


E|-------------------------------------------------||
B|-------------------------------------------------||
G|-12-12-12-12-12-12-12-12-12-12-12-12-12-12-12-12-|| x 2
D|--x--x--x--x--x--x--x--x--x--x--x--x--x--x--x--x-||
A|-10-10-10-10-10-10-10-10-10-10-10-10-10-10-10-10-||
E|-------------------------------------------------||


Post Chorus
Guitar 1

E|-2~-----------------------------------||
B|-3~-----------------------------------||
G|-2~-----------------------------------||
D|-0~-----------------------------------||
A|--------------------------------------||
E|--------------------------------------||


Guitar 2

E|------------------------------------------|
B|------------------------------------------|
G|--7-7-7-7-9-9-9-9-11-11-11-11-12-12-12-12-|
D|--x-x-x-x-x-x-x-x--x--x--x--x--x--x--x--x-|
A|--5-5-5-5-7-7-7-7--9--9--9--9-10-10-10-10-|
E|------------------------------------------|



Outro
Guitar 1

E|--0-0-0-0-0-0-0-0-0-0-0--||
B|--1-1-1-1-1-1-1-1-1-1-1--||
G|--2-2-2-2-2-2-2-2-2-2-2--|| Strum
D|--2-2-2-2-2-2-2-2-2-2-2--||
A|--0-0-0-0-0-0-0-0-0-0-0--||
E|-------------------------||


Guitar 2

E|----------------------------------||
B|----------------------------------||
G|----------------2-----------------|| x 4
D|--2-X-4-X-5-X-4-2-X-X-4-X-5-X-7\--||
A|--0-0-0-0-0-0-0-0-0-0-0-0-0-0-0---||
E|----------------------------------||


E|--------------------------||
B|--------------------------||
G|--------------------------|| x 2
D|--10~---10-9-----7--5-----||
A|--0~~---0--0--0--0--0-----||
E|--------------------------||



Both Guitars

E|-0-0----------0-0-0-0-----------||
B|-1-1----------1-1-1-1-----------||
G|-2-2----------2-2-2-2-----------||
D|-2-2----------2-2-2-2-----------||
A|-0-0----------0-0-0-0-----------||
E|--------------------------------||




Intro Riff x 3
Verse x 4
Pre Chorus
Chorus x 2
Bridge part 1 x 2
Verse x 2
Pre Chorus
Chorus x 2
Post Chorus
Bridge part 1 x 6
Bridge part 2 x 4
Bridge part 3 x 4
Bridge Part 4 x 8
Intro Riff
Chorus x 4
Post Chorus
Bridge Part 1 x 4
Bridge Part 2 x 2

Keep you in the dark
You know they all pretend
Keep you in the dark
And so it all began

Send in your skeletons
Sing as their bones go marching in... Again
The need you buried deep
The secrets that you keep are ever ready
Are you ready?
I'm finished making sense
Done pleading ignorance
That whole defense

Spinning infinity, Boy
The wheel is spinning me
It's never-ending, never-ending
Same old story

What if I say I'm not like the others?
What if I say I'm not just another one of your plays?
You're the pretender
What if I say I will never surrender? (x2)

In time our soul untold
I'm just another soul for sale... Oh, well
The page is out of print
We are not permanent
We're temporary, temporary
Same old story

What if I say I'm not like the others?
What if I say I'm not just another one of your plays?
You're the pretender
What if I say I will never surrender? (x2)

I'm the voice inside your head
You refuse to hear
I'm the face that you have to face
Mirrored in your stare
I'm what's left, I'm what's right
I'm the enemy
I'm the hand that will take you down
Bring you to your knees

So who are you?
Yeah, who are you?
Yeah, who are you?
Yeah, who are you?

Keep you in the dark
You know they all pretend

What if I say I'm not like the others?
What if I say I'm not just another one of your plays?
You're the pretender
What if I say I will never surrender? (x4)

So who are you?
Yeah who are you?


Esse som é muito louco...
    Composição: Foo FightersColaboração e revisão:
    • Rodrigo
    • Níkolas
    • will

    Comentários 39

    140 .
    • Gabriel Gabriel: Em 06/04/2015 21:03

      poh cairia bem uma video aula dessa musica,ainda tem algumas partes q nn to fixando

    • André André: Em 15/04/2014 15:43

      nem precisa de vídeo aula, é só treino.

    • Vinicius Vinicius: Em 06/03/2014 10:15

      E ae Fofão, Vinicius Dias que ensinam música de verdade bota uma video aula ai

    • pinguin pinguin: Em 04/02/2014 14:18

      vamo começar a fazer vídeo aula de músicas boas assim por favooor, FOFÃO abraça a causa, sei que você é dos nossos que curte um rock!! Aqui

    • vini vini: Em 04/10/2013 20:51

      precisa de video aula essa musica !!!!!!!

    • marcelo_s_h marcelo_s_h: Em 14/09/2013 00:01

      Caramba, mas como não fizeram vídeo-aula dessa música ainda? e.e

    • everton everton: Em 06/09/2013 01:11

      tem q ter video aula

    • Mateus Mateus : Em 17/06/2013 15:04

      fácil demais

    • Oscar Alex Oscar Alex: Em 18/04/2013 13:32

      pueden darse un ejemplo en youtube: 9 year old Zoe Thomson sings and plays on guitar The Pretender by Foo Fighters (:

    • Marcos Marcos: Em 16/03/2013 22:59

      Com video aula fica tudo mais claro

    Exibindo 10 de 39 comentários Mostrar mais ver todos »
    140 cancelar

    conseguiu tocar?

    • Kenedy
    • Gustavo
    • violão
    • Endric
    • Any
    • Matheus
    • André
    • •••
    0:00 / 0:00

    Capítulos

      2 versões de baixo exibições contribuição e correção
      1 versão de bateria exibições contribuição e correção
      play/pausefechar subir/descer velocidade
      6ª corda E5ª corda A4ª corda D3ª corda G2ª corda B1ª corda E
        acordes
        publicidad
        fechar
        ok