Good Trip

Forfun

 Forfun
Tom: D
		
(intro) riff 1


E|------------------------------|-----------------------------------|
B|------------------------------|-----------------------------------|
G|------------------------------|-----------------------------------| (base da música)
D|-22-----------5------77-------|--77---------4------77------767----|
A|-55--445577---2-754--55-4455--|--55-445577--2-754--55-4455-545-25-|
E|-----223355-----532-----2233--|-----223355----532-----2233-----03-|


(riff 1)
Marquei um dub no carro
E fui dá um rolé
Com 5 conto , uma cerva e os amigo
Fiz a missão e a massa tá no brilho
Partiu e seja o que Deus quiser

(riff 1 abafado)
De oculos escuros eu vejo o que você não vê
As mulézinha doidona dando pala
E a playboyzada enxendo o cu de bala
E o grave enxendo as luzes de cor

D                                    A G
Segue a babilônia alucinada dessa geração
                                      E D
Mais uma festa alucinada em outra dimensão
                                   G A
Sigo tranquilo me esquivando da estagnação

D                     A  G F#m G    (guitarra 2)
Sem bad trip nada me abala                 
D                          A  G F#m G   D5 C#5 B5 A5  G5 F#5  G5
Abra a sua mente, faça sua mala           

(riff 1)
Pobre de espirito
Aquele que não se aventurar
O comodismo é um mal parasitário
juventude perdida é o caralho
Eu tenho muito mais pra dizer

(riff 1 abafado)
E nem preciso de muito pra viver na paz
Só o meu skate, a praiana e simpatia
nobre de alma é quem vive em harmonia
Mantenho o equilíbrio onde for

D                                    A - G
Segue a babilônia alucinada em degeneração
                                    E - D
dando lugar a luz que vem de cada coração
                           G - A
Sigo pro alto a bpm da evolução

D                     A  G F#m - G     (guitarra 2)
Sem bad trip nada me abala                 
D                          A - G F#m  G  D5 C#5 B5 A5  G5 F#5 - G5
Abra a sua mente, faça sua mala            

(rff 2)

Sem bad trip nada me abala
Abra a sua mente, faça sua mala

D                     A  G F#m  G       (guitarra 2)
Sem bad trip nada me abala                 
D                          A  G F#m  G   D5 C#5 B5 A5  G5 F#5  G5
Abra a sua mente, faça sua mala            

(riff 2 - 2x)


E|--------------------------------------------------------
B|--------------------------------------------------------
G|--------------------------------------------------------
D|-7-7-7-7-7--7-7-7-7-7---------7-7-7-7-7---7-7-7-7-7--8--
A|-5-5-5-5-5--5-5-5-5-5---------5-5-5-5-5---5-5-5-5-5--6--
E|----------------------0-0-0-0---------------------------



------------------------------------------------------------------|
------------------------------------------------------------------|
------------------------------------------------------------------|
-7-7-7-7-7--7-7-7-7-7------------7-7-7-7-7---7-7-7-7-7---8--7-7-8-|
-5-5-5-5-5--5-5-5-5-5------------5-5-5-5-5---5-5-5-5-5---6--5-5-6-|
------------------------0-0-0-0-----------------------------------|

Comentários 0

Composição: Sabe quem é o compositor? Envie pra gente. Contribuição: brunors.dm Correções: olivaneir »
Exibir acordes »
publicidade
fechar