Minha Jóia

Forfun

 Forfun
Tom: E
		
Intro:


          E7+                 E7+(9)
E|--7--7--7--7--7--7--7--7-7--7--7--7--7--7--7--7-7--|
B|--9--9--9--9--9--9--9--9p7--7--7--7--7--7--7--7h9--|
G|--8--8--8--8--8--8--8--8-8--8--8--8--8--8--8--8-8--|  (2x)
D|--9--9--9--9--9--9--9--9-9--9--9--9--8--8--8--8-9--|
A|--7--7--7--7--7--7--7--7-7--7--7--7--7--7--7--7-7--|
E|---------------------------------------------------|


        A7+                   G#m7
E|---------------------------------------------------|
B|5--5--5--5--5--5--5--5--4--4--4--4--4--4--4--4-----|
G|6--6--6--6--6--6--6--6--4--4--4--4--4--4--4--4-----|  (2x)
D|6--6--6--6--6--6--6--6--4--4--4--4--4--4--4--4-----|
A|---------------------------------------------------|
E|5--5--5--5--5--5--5--5--4--4--4--4--4--4--4--4-----|


E7+          E7+(9)
Caminharemos lado a lado
E7+             E7+(9)
Uma questão de afinidade
A7+                      G#m7
Música, dança, tempero e sabor
A7+                      G#m7
Afeto, amparo, carinho e calor

E7+             E7+(9)
E uma faísca desse amor
E7+         E7+(9)
Abrasará o coração
A7+            G#m7
É a alma quem canta
A7+            G#m7
É a alma quem canta

Refrão:
E7+            C#m7
Minha criança, minha jóia
F#m7(4)             B7
Minha vida, meu amor
E7+            C#m7
Minha criança, minha jóia
F#m7(4)             B7
Minha vida, meu amor

Comentários 1

  • Talita Talita: Postado em 13/02/2013 18:16

    ritmojQuery17206314931495580822_1360786358987??

Composição: Danilo Cutrim, Vitor Isensee, Rodrigo Costa, Nicolas Fassano
Esse não é o compositor? Avise-nos.
Contribuição: Castilho Rock Correções: Jorge , Jorge e mais 3 »
Exibir acordes »
publicidade
fechar