Planeta de cores

Forrozão Tropykália

 Forrozão Tropykália
Tom: F
		

Intro: Dm  Gm  C  Gm  Dm  Gm  Dm  C
E|-------------------------------------------------------------
A|-------------------------------------------------------------
D|-------------------------------------------------------------
G|--2----2-----------------2----------------2------------------
B|--3----------------3----------------3-------------3-1-3------
E|--1--------1-1-0---1------1-1-0---0-----0-0-------------1----



E|-------------------------------------------------------------
A|-------------------------------------------------------------
D|-------------------------------------------------------------
G|----2----2-----------------2------------2----------------3---
B|---3----------------3----------------3-3----------3-1----1-3-
E|--------1-1-0---1------1-1-0---1---5-3-----------------------



Dm		Gm
Ei, não deixa como está
        C			Gm	   		  Dm
Ser mais uma história infinita, quem sabe até vivemos uma vida
	 Gm			C
Se nos sentimos sós, isso não quer dizer que já é tarde
	Dm		   Gm			Am Bb 	          C  Dm
Que a vida desfez pra nós, mas se não lembrares mais 	Melhor recomeçar...

             Gm			 C
Seguir o meu destino, mesmo com toda dor que há aqui dentro
Gm	    			Dm
Não podemos bloquear nossos caminhos
	Gm			       C
Talvez descobriras que nossa história não foi só um minuto
Dm 			   Gm			Am Bb
Sem futuro nenhum pra nós, Mas, se agora não dá mais

C				Gm
Pra viver, amar como antes, talvez com medo de querer...
F				C		Gm			Dm
Mas não ver que o amor não se esconde 	Mesmo em silencio pode se ouvir ao longe
Bb		    F 			            Eb	                      Dm Gm
Não se foge, não se pode negar o amor 	Só entregar-se, a esse planeta de cores...
Solo:

E|--------------------------------------
A|--------------------------------------
D|--------------------------------------
G|--2----2-----------------2------------
B|--3----------------3---------------3--
E|--1--------1-1-0----1----1-1-0--------


Dm	 Gm				C
É difícil pra nós dois, também é muito injusto cobrar-nos
Gm				Dm
Se a lembranças sempre vem, nos emocionam
	 Gm			C				Dm
As coisas que eu dizia, e hoje com remorso me lembro que fazia você chorar
Gm	             Am Bb
Mas, se agora não dá mais
C					Gm
Pra viver, amar como antes, talvez com medo de querer...

F				C		Gm			Dm
Mas não ver que o amor não se esconde 	Mesmo em silencio pode se ouvir ao longe
Bb			F			Eb		          Bb
Não se foge, não se pode negar o amor 	Só entregar-se, esse planeta de cores...
   C	       F			C		Gm			Dm
Mas porque  não ver que o amor não se esconde 	Mesmo em silencio pode se ouvir ao longe
F			C		Gm		    		  Bb      C         F
Não se foge, não se pode negar o amor Só entregar-se, esse planeta de cores... Que é nosso amor...
42.665 exibições

Comentários 1

  • shang shang: Postado em 26/03/2011 17:41

    Por favor, uma video aula dessa musica

Composição: Rivaldo Pontes
Esse não é o compositor? Avise-nos.
Contribuição: junior Correções: giron e mais 2 »
Exibir acordes »
publicidade
fechar