2345meia78

Gabriel O Pensador

 Gabriel O Pensador
Tom: F#
		

|-----------------------------------------0-1-0-----
|----------------------0-1-3------------------------
|------------------1-3-------1--1--1--1-1--1-1-1-1--
|-5/1--1--1--1-3-4----------------------------------



|------------------------------------------------
|------------------------------------------------
|------------------------------------------------
|-1-3-1-3-1--3--2----------------------------------



Esse riff foi sampleado de uma musica norte-americana, então o baixo 

fica nisso durante a musica inteira

Comentários 1

  • TXFranco TXFranco: Postado em 20/01/2012 12:58

    PRA QUEM QUER TOCAR ESSA MUSICA DO GABRIEL O PENSADOR PODE USAR ESSES ACORDES: "Bbm, G#, F#". Ai é só pegar o ritmo...flw

Composição: Baby Face / Dave Thomson / Gabriel o Pensador / Gary Peter Husband / Jane´t Sewell-Ulepic / Kenny Young / Rodolphe Burger / Sam Coslow
Esse não é o compositor? Avise-nos.
Exibir acordes »
publicidade
fechar