A Razão

Gabriel & Rafael

Sem foto do Gabriel & Rafael
Tom: D
		
D               Bm
Eu nunca fui perfeito
                             D
há tanto que eu queria te dizer
                   Bm
mas continuo aprendendo
                            G
eu nunca quis fazer você sofrer
                           A
agora eu tenho algo a te dizer
                D
Você precisa saber
                     Bm
que eu sempre amei você
                     G
eu nunca quis te perder
                      A
achei uma razão pra viver
               D
e a razão é você
                      Bm
Desculpe eu sei que errei
                            D
agora estou tentando consertar
                  Bm
e tudo aquilo que falei
                           G
foi realmente pra te machucar
                         A
desculpe eu não pude evitar
                    D
mas você precisa saber
                     Bm
Que eu sempre amei você
                     G
eu nunca quis te perder
                       A
achei uma razão pra viver
               G
e a razão é você
             D
a razão é você
              G
E a razão é você
              D
E a razão é você
                  Bm
Eu nunca fui perfeito
                              G
mas nunca quis fazer você sofrer
                            A
agora eu tenho algo a te dizer
                    D
mas você precisa saber
                      Bm
que eu sempre amei você
                     G
eu nunca quis te perder
                       A
achei uma razão pra viver
               D
e a razão é você
                  Bm
eu sempre amei você
                     G
eu nunca quis te perder
                        A
achei uma razão pra viver
                D
minha razão é você.

Solo que acompanha o início

                      D
E|-----------------------------------------------------------
B|----------------------7-----------7-------7---------7-------
G|-----------------7--9---6----7--9---6-7-9----6---7-9---6----
D|-0-0-0-0-0-0-0-0--------------------------------------------
A|------------------------------------------------------------
E|------------------------------------------------------------


                  D


E|---------------------------------------------
B|-------7-----------7-------7---------7-------
G|--7--9---6----7--9---6-7-9----6---7-9---6----
D|---------------------------------------------
A|---------------------------------------------
E|---------------------------------------------
5.252 exibições

Comentários 0

Composição: Sabe quem é o compositor? Envie pra gente. Contribuição: Ray Aguiar Correções: André »
Exibir acordes »
publicidade
fechar