Aleluia

Gabriela Rocha

 Gabriela Rocha Compositor: Thalles Roberto
Tom: C
		
Intro:  C  Am C  Am


      C              Am
E|--------0--------------0------------------------
B|------1---1----------1---1----------------------
G|----0--------------2----------------------------
D|-3----------2--0-----------2--------------------
A|------------------------------------------------
E|------------------------------------------------



      C              Am
E|--------0--------------0------------------------
B|------1---1----------1---1----------------------
G|----0--------------2-------2--------------------
D|-3----------2--0--------------------------------
A|------------------------------------------------
E|------------------------------------------------




      F11              G
E|--------1---------------3------------------------
B|------2---2-----------3---3----------------------
G|----1-------1-------0-------0--------------------
D|-------------------------------------------------
A|-------------------------------------------------
E|-1---------------3-------------------------------



      C                G
E|--------0---------------3-------------------------
B|------1---1-----------3---3-----------------------
G|----0-------0-------0-------0---------------------
D|--------------------------------------------------
A|--------------------------------------------------
E|-3---------------3--------------------------------



      C                F11
E|--------0-----------------------------------------
B|------1---1-----------2---------------------------
G|----0-------0-------1-----------------------------
D|--------------------------------------------------
A|--------------------------------------------------
E|-3---------------1--------------------------------



      G                Am
E|------------------------0-------------------------
B|------3---------------1---1-----------------------
G|----0---------------2-------2---------------------
D|--------------------------------------------------
A|-----------------0--------------------------------
E|-3------------------------------------------------



      F11              G
E|--------1---------------3------------------------
B|------2---2-----------3---3----------------------
G|----1-------1-------0-------0--------------------
D|-------------------------------------------------
A|-------------------------------------------------
E|-1---------------3-------------------------------



      Em11             Am
E|--------0---------------0------------------------
B|------0---0-----------1---1----------------------
G|----0-------0-------2-------2--------------------
D|-------------------------------------------------
A|-------------------------------------------------
E|-1---------------0------------0-------------------



      F11
E|--------1---------------1------------------------
B|------2---2-----------2---2----------------------
G|----1-------1-------1-------1--------------------
D|-------------------------------------------------
A|-------------------------------------------------
E|-1---------------1-------------------------------



      Am                Am
E|--------1----------------0------------------------
B|------1---1------------1---1----------------------
G|----2-------2--------2-------2--------------------
D|--------------------------------------------------
A|-0----------------0--------------------------------
E|--------------------------------------------------



      F11              C
E|--------1---------------0-------------------------
B|------2---2-----------1---2-----------------------
G|----1-------1-------0-------1---------------------
D|-----------------2------------3-2-----------------
A|--------------------------------------------------
E|-1------------------------------------------------



      G
E|---------3-----------------------------------------
B|-------3---3---------------------------------------
G|-----0-------0-------------------------------------
D|--0------------------------------------------------
A|---------------------------------------------------
E|---------------------------------------------------



C                 Am
Pai eu quero te amar
C                 Am
Tocar o teu coração
F          G           C  G
E me derramar aos teus pés

C                     F       G
Mais perto eu quero estar Senhor
  Am                F
E te adorar com tudo que eu sou
  G           E           Am
E te render glória e aleluia

 F          Am      F       C      G         C
Aleluia, Aleluia, Aleluia, Alelu -uu uu     uu iaa

C                        Am
Quando lutas vierem me derrubar
C                  Am
Firmado em ti eu estarei
F           G                 C  G
Pois tu és o meu refúgio oh Deus

C                   F        G
E não importa onde estiver
Am                    F
No vale ou no monte adorarei
  G             E            Am
A ti eu canto glória e aleluia

F          Am      F       C      G         C
Aleluia, Aleluia, Aleluia, Alelu -uu uu     uu iaa

( C  Am  C  Am  C  D )


  C              Am                       

E|--------0--------------0------------------------
B|------1---1----------1---1----------------------
G|----0--------------2----------------------------
D|-3----------2--0-----------2--------------------
A|------------------------------------------------
E|------------------------------------------------


  C              Am                       

E|--------0--------------0------------------------
B|------1---1----------1---1----------------------
G|----0--------------2-------2--------------------
D|-3----------2--0--------------------------------
A|------------------------------------------------
E|------------------------------------------------



      D
E|---------3-----------------------------------------
B|-------3---3---------------------------------------
G|-----0-------0-------------------------------------
D|-0--------------------------------------------------
A|---------------------------------------------------
E|---------------------------------------------------


D                 Bm
Senhor preciso do teu olhar
D                   Bm
Ouvir as batidas do teu coração
G                   A            D  A
Me esconder nos teus braços oh pai
D                    G     A
Toda minha alma deseja a ti
Bm                     G
Junto com os anjos cantarei
        A      F#           Bm
Tu és Santo, exaltado, Aleluia

( G          Bm      G          D         A        D )
47.872 exibições

Comentários 4

  • Davi Davi: Postado em 04/10/2014 23:21

    Já tentou ouvir a música "" Missaela "" ????

  • Missaela Missaela: Postado em 29/09/2014 22:39

    como eh o dedilhado dessa musica???alguem pode me flar???

  • roseney roseney: Postado em 24/05/2014 10:25

    canta demais,o bom que é para louvar a Deus.

  • Iara Iara: Postado em 08/01/2014 18:59

    versão perfeita essa !!!

Composição: Sabe quem é o compositor? Envie pra gente. Contribuição: nannyduarte Correções: Rodrigo , danieldinizzz e mais 2 »
Exibir acordes »
publicidade
fechar