I Think I'm Paranoid

Garbage

 Garbage
Verse 1:

Cym |x-x-x-x-x-x-x-x-|x-x-x-x-x-x-x-x-|x-x-x-x-x-x-x-x-|x-x-x-x-x-x-x-x-|
S   |o---o-------o---|o---o-------o---|o---o-------o---|o---o-------o---|
B   |0-----0-0-------|0-----0-0-------|0-----0-0-------|0-----0-0-------|

Cym |x-x-x-x-x-x-x-x-|x-x-x-x-x-x-x-x-|x-x-x-x-x-x-x-x-|x-x-x-x-x-x-x-x-|
S   |----o-------o---|----o-------o---|----o-------o---|----o-------o---|
B   |0-----0-0-------|0-----0-0-------|0-----0-0-------|0-----0-0-------|

Cym |x-x-x-x-x-x-x-x-|x-x-x-x-x-x-x-x-|x-x-x-x-x-x-x-x-|x-x-x-x-x-x-x-x-|
S   |----o-------o---|----o-------o---|o---o-------o---|o---o-------o---|
B   |0-----0-0-------|0-----0-0-------|0-----0-0-------|0-----0-0-------|

1st Chorus:

Cym |x-x-x-x-x-x-x-x-|x-x-x-x-x-x-x-x-|x-x-x-x-x-x-x-x-|x-x-x-x-x-x-x-x-|
S   |----o-------o---|----o-------o---|----o-------o---|----o-------o---|
B   |0-----0-0-------|0-----0-0-------|0-----0-0-------|0-----0-0-------|

Cym |x-x-x-x-x-x-x-x-|x-x-x-x-x-x-x-x-|x-x-x-x-x-x-x---|x-x-x-x-x-x-x-x-|
S   |----o-------o---|----o-------o---|----o-------o-oo|----o-------o---|
B   |0-----0-0-------|0-----0-0-------|0-----0-0-------|0-----0-0-----0-|

Cym |x-x-x-x---------|x-x-x-x-x-x-x-x-|x-x-x-x-x-x-x-x-|x-x-x-x-x-x-x-x-|
S   |----o-----o-o-o-|----o-------o---|----o-------o---|----o-------o---|
B   |--0---0-0-0-0-0-|0-----0-0-------|0-----0-0-------|0-----0-0-------|

Cym |x-x-x-x-x-x-x-x-|x-x-x-x-x-x-x-x-|x-x-x-x-x-x-x-x-|x-x-x-x-x-x-x-x-|
S   |----o-------o---|----o-------o---|----o-------o---|----o-------o---|
B   |0-----0-0-------|0-----0-0-------|0-----0-0-------|0-----0-0-------|

Cym |x-x-x-x-x-x-x-x-|x-x-x-x-x-x-x-x-|
S   |----o-------o---|----o-------o---|
B   |0-----0-0-------|0-----0-0-------|

Verse 2:

Cym |x-x-x-x-x-x-x-x-|x-x-x-x-x-x-x-x-|x-x-x-x-x-x-x-x-|x-x-x-x-x-x-x-x-|
S   |o---o-------o---|o---o-------o---|o---o-------o---|o---o-------o---|
B   |0-----0-0-------|0-----0-0-------|0-----0-0-------|0-----0-0-------|

Cym |x-x-x-x-x-x-x-x-|x-x-x-x-x-x-x-x-|x-x-x-x-x-x-x-x-|x-x-x-x-x-x-x-x-|
S   |----o-------o---|----o-------o---|----o-------o---|----o-------o---|
B   |0-----0-0-------|0-----0-0-------|0-----0-0-------|0-----0-0-------|

Cym |x-x-x-x-x-x-x-x-|x-x-x-x-x-x-x-x-|x-x-x-x-x-x-x-x-|x-x-x-x-x-x-x-x-|
S   |----o-------o---|----o-------o---|o---o-------o---|o---o-------o---|
B   |0-----0-0-------|0-----0-0-------|0-----0-0-------|0-----0-0-------|

2nd Chorus:

Cym |x-x-x-x-x-x-x-x-|x-x-x-x-x-x-x-x-|x-x-x-x-x-x-x-x-|x-x-x-x-x-x-x-x-|
S   |----o-------o---|----o-------o---|----o-------o---|----o-------o---|
B   |0-----0-0-------|0-----0-0-------|0-----0-0-------|0-----0-0-------|

Cym |x-x-x-x-x-x-x-x-|x-x-x-x-x-x-x-x-|x-x-x-x-x-x-x---|x-x-x-x-x-x-x-x-|
S   |----o-------o---|----o-------o---|----o-------o-oo|----o-------o---|
B   |0-----0-0-------|0-----0-0-------|0-----0-0-------|0-----0-0-----0-|

Cym |x-x-x-x---------|x-x-x-x-x-x-x-x-|x-x-x-x-x-x-x-x-|x-x-x-x-x-x-x-x-|
S   |----o-----o-o-o-|----o-------o---|----o-------o---|----o-------o---|
B   |--0---0-0-0-0-0-|0-----0-0-------|0-----0-0-------|0-----0-0-------|

Cym |x-x-x-x-x-x-x-x-|x-x-x-x-x-x-x-x-|x-x-x-x-x-x-x-x-|x-x-x-x-x-x-x-x-|
S   |----o-------o---|----o-------o---|----o-------o---|----o-------o---|
B   |0-----0-0-------|0-----0-0-------|0-----0-0-------|0-----0-0-------|

Cym |x-x-x-x-x-x-x-x-|x---------------|
S   |----o-------o---|--o-o-o-o-o-o-o-|
B   |0-----0-0-------|0-0-0-0-0-0-0-0-|

3rd Chorus:

Cym |x-x-x-x-x-x-x-x-|x-x-x-x-x-x-x-x-|x-x-x-x-x-x-x-x-|x-x-x-x-x-x-x-x-|
S   |----o--o----o---|----o--o----o---|----o--o----o---|----o--o----o---|
B   |0-----0-0-0-----|0-----0-0-0-----|0-----0-0-0-----|0-----0-0-0-----|

Cym |x-x-x-x-x-x-x-x-|x-x-x-x-x-x-x-x-|x-x-x-x-x-x-x-x-|x-x-x-x-x-x-x-x-|
S   |----o--o----o---|----o--o----o---|----o--o----o---|----o--o----o---|
B   |0-----0-0-0-----|0-----0-0-0-----|0-----0-0-0-----|0-----0-0-0-----|

Cym |x-x-x-x-x-x-----|x-x-x-x-x-x-x-x-|x-x-x-x-x-x-x-x-|x-x-x-x-x-x-x-x-|
S   |----o--o--------|----o-------o---|----o-------o---|----o-------o---|
B   |0-----0-0-0-----|0-----0-0-------|0-----0-0-------|0-----0-0-------|

Cym |x-x-x-x-x-x-x-x-|x-x-x-x-x-x-x-x-|x-x-x-x-x-x-x-x-|x-x-x-x-x-x-x-x-|
S   |----o-------o---|----o-------o---|----o-------o---|----o-------o---|
B   |0-----0-0-------|0-----0-0-------|0-----0-0-------|0-----0-0-------|

Cym |x-x-x-x-x-x-x-x-|x---------------|
S   |----o-------o---|--o-o-o-o-o-o-o-|
B   |0-----0-0-------|0-0-0-0-0-0-0-0-|

4th Chorus:

Cym |x-x-x-x-x-x-x-x-|x-x-x-x-x-x-x-x-|x-x-x-x-x-x-x-x-|x---------------|
S   |----o-------o---|----o-------o---|----o-------o---|--o-o-o-o-o-o-o-|
B   |0-----0-0-------|0-----0-0-------|0-----0-0-------|0-0-0-0-0-0-0-0-|

Cym |x-x-x-x-x-x-x-x-|x-x-x-x-x-x-x-x-|x-x-x-x-x-x-x-x-|x---------------|
S   |----o-------o---|----o-------o---|----o-------o---|--o-o-o-o-o-o-o-|
B   |0-----0-0-------|0-----0-0-------|0-----0-0-------|0-0-0-0-0-0-0-0-|

Cym |x-x-x-x-x-x-x-x-|x-x-x-x-x-x-x-x-|x-x-x-x-x-x-x-x-|x---------------|
S   |----o-------o---|----o-------o---|----o-------o---|--o-o-o-o-o-o-o-|
B   |0-----0-0-------|0-----0-0-------|0-----0-0-------|0-0-0-0-0-0-0-0-|

Cym |x-x-x-x-x-x-x-x-|x-x-x-x-x-x-x-x-|x-x-x-x-x-x-x-x-|x---------------|
S   |----o-------o---|----o-------o---|----o-------o---|--o-o-o-o-o-o-o-|
B   |0-----0-0-------|0-----0-0-------|0-----0-0-------|0-0-0-0-0-0-0-0-|

Verse 3:

Cym |x-x-x-x-x-x-x-x-|x-x-x-x-x-x-x-x-|x-x-x-x-x-x-x-x-|x-x-x-x-x-x-x-x-|
S   |o---o-------o---|o---o-------o---|o---o-------o---|o---o-------o---|
B   |0-----0-0-------|0-----0-0-------|0-----0-0-------|0-----0-0-------|

Cym |x-x-x-x-x-x-x-x-|x-x-x-x-x-x-x-x-|x-x-x-x-x-x-x-x-|x-x-x-x-x-x-x-x-|
S   |o---o-------o---|o---o-------o---|o---o-------o---|o---o-------o---|
B   |0-----0-0-------|0-----0-0-------|0-----0-0-------|0-----0-0-------|

Comentários 0

Composição: Chico César / Garbage / Thabiso Nkhereanye
Esse não é o compositor? Avise-nos.
Contribuição: Hellektra
Consegui tocarAinda não conseguiram tocar essa música. Seja o primeiro!
    Não consegui tocar
    publicidade
    fechar