Dança da Motinha

Garota Safada

 Garota Safada
E|-10-9-8-7-7--|----------------|
B|-------------|-12-11-10-8-8---| (x2)
G|-------------|----------------|

E|------------|
B|-----7-8-8--|
G|-7-9--------|

E|-------10-10--10-8-7-------|
B|-8-10-8-------------10-10--|

E|---------12-12--12-10-8----|
B|-10-12-10--------------12--|

E|-------10-10--10-8-7-------|
B|-8-10-8-------------10-10--|

E|-------8-8--8-7------------|
B|-8-10-8---------10-8-------|

E|-10---10-------|
B|---------8-8---|
G|----7----------|

E|-------10-10--10-8-7-------|
B|-8-10-8-------------10-10--|

E|---------12-12--12-10-8----|
B|-10-12-10--------------12--|

E|-------10-10--10-8-7-------|
B|-8-10-8-------------10-10--|

E|-------8-8--8-7------------|
B|-8-10-8---------10-8-------|

(intro é tocada toda no sax)
2.911 exibições

Comentários 0

publicidade
fechar