Fui Fiel

Garota Safada

 Garota Safada
Tom: A
		
 A                          E9
Hoje eu acordei, me veio a falta de você
    Bm              D
Saudade de você, saudade de você
     A                         E9
Lembrei que me acordava de manhã só pra dizer:
      Bm
"Bom dia, meu bebê!
   D
Te amo, meu bebê!"

Solo:

Primeira Parte


E|-----12-----------------------------------------
B|--14----12-14-15-14---------12-15-14-12----12--
G|----------------------14-11--------------14----9
D|------------------------------------------------
A|------------------------------------------------
E|------------------------------------------------


Segunda Parte


E|-----12------------------17-16-14------------
B|--14----12-14-15-14--------------14-15-17-14
G|----------------------14---------------------
D|---------------------------------------------
A|---------------------------------------------
E|---------------------------------------------


A
Foi bonito, foi
E9            Bm
Foi intenso, foi verdadeiro
D
Mas sincero
A              E9
Sei que fui capaz
           Bm
Fiz até demais
     D
Te quis do teu jeito
A       E9
Te amei, te mostrei
Bm                   D
Que o meu amor foi o mais profundo
A        E9
Me doei, me entreguei
     Bm      D
Fui fiel! Chorei, chorei...

 A                          E9
Hoje eu acordei, me veio a falta de você
    Bm              D
Saudade de você, saudade de você
     A                         E9
Lembrei que me acordava de manhã só pra dizer:
      Bm
"Bom dia, meu bebê!
   D
Te amo, meu bebê!"
5.491 exibições

Comentários 1

  • victor235 victor235: Postado em 15/09/2013 19:39

    Aprenda a tocar "Fui fiel" no violão e cante a música junto!: watch?v=sw5fVwq4cOI (no Youtube)

Composição: Pablo / Magno Santanna / Felipe Escandurras / Fabio O’Brian
Esse não é o compositor? Avise-nos.
Contribuição: Carlos
Exibir acordes »
publicidade
fechar