Lapada Lapada

Garota Safada

 Garota Safada
Tom: D
		

E|-----------------------------------------
B|-----------------------------------------
G|-----------------------------------------
D|--4-4-4-4--7-7--4----------7-7-----------
A|-------------------7-7-7-7-----7---------
E|-----------------------------------------



E|-----------------------------------------
B|-----------------------------------------
G|-----------------------------------------
D|--4-4-4-4-7-7-4-7------------4-4-7-7-----
A|------------------5--5-5-5-5-------------
E|-----------------------------------------



E|-----------------------------------------
B|-----------------------------------------
G|--6--6-6-6-6-----6-----------------------
D|-------------7-7-------------------------
A|-----------------------------------------
E|-----------------------------------------



E|-----------------------------------------
B|-----------------------------------------
G|--4-----4-----4-----4--------------------
D|----6-6---6-6---6-6---6---4--------------
A|------------------------7----------------
E|-----------------------------------------



Bm        G                   D
Alô mulherada o safadão ja chegou
               A                     Bm
o bambam da balada só quer te dar amor
                  G                           D
só tenho cara de santo mas de bobo nao tenho nada
          A
aonde eu chego sou o rei da balada

Bm              G                            D
Se você esta de deprê e esta se sentindo mal amada
            A                          Bm
comigo é assim lapada lapada lapada lapada
                G                        D
Se você esta de deprê e esta se sentindo mal amada
            A                             Bm
comigo é assim lapada lapada lapada lapada

            G                            D
Comigo é assim lapada lapada lapada lapada
            A                            Bm
Comigo é assim lapada lapada lapada lapada     (2x)

Bm               G                         D
E quando eu te pegar eu vou te levar pro ceu
                 A                          Bm
eu vou te dar tapinha da beijinho e tome creu
              G                  D
Te puxo te abraço te pego e te amasso
              A
na onda do arrocha na cama te esculacho

D               A                     Bm
Se você esta de deprê e esta se sentindo mal amada
            A                          Bm
comigo é assim lapada lapada lapada lapada
                G                        D
Se você esta de deprê e esta se sentindo mal amada
            A                             Bm
comigo é assim lapada lapada lapada lapada

            G                            D
Comigo é assim lapada lapada lapada lapada
            A                            Bm
Comigo é assim lapada lapada lapada lapada
20.519 exibições

Comentários 2

  • clinton clinton: Postado em 28/09/2014 12:10

    cadê o solo da guitarra,nao consigo fazer,ajudem-me por favor

  • levy levy: Postado em 31/05/2013 12:04

    qual é a batida?

Composição: Sabe quem é o compositor? Envie pra gente. Contribuição: Carlos Correções: g.safadao , Carlos e mais 2 »
Exibir acordes »
publicidade
fechar