Mama

Genesis

 Genesis
(he bass doesnt play until the actual drums come in)

G|---------------------------------------------------|
D|---------------------------------------------------|(2x)
A|---------------------------------------------------|
E|-0-03-00--0-00-0-0--0-00-0-0--0-00-0-0--0-00-0-0-7\|

G|--------------------------------------------------|
D|--------------------------------------------------|
A|--------------------------------------------------|
E|-0-00-0-0--0--300--0-00-0-0--0-00-0-0--0-00-0-0-7\|

G|-------------------------------------------------|
D|-------------------------------------------------|
A|-------------------------------------------------|
E|-0-00-0-0--0-00-0-0-0-00-0-0-0-0h3h5-3h5-0-00-0-0|

(play this until the end)
G|-----------------------------------|
D|-----------------------------------|
A|---7\-----------7\-----------7\----|
E|0-0--0-0-0--0-0---0-0--0-0---0-0---|

Comentários 0

Composição: Diane Warren
Esse não é o compositor? Avise-nos.
Consegui tocarAinda não conseguiram tocar essa música. Seja o primeiro!
    Não consegui tocar
    publicidade
    fechar