Careless Whisper

George Michael

 George Michael
Tom: F
		
Intro:
     Dmadd9                  Bbadd9

     Dm                     Gm7                Gm7/A Bb7M
e|---0-----------0--------------------------------------------------|
B|------3-----------3--------1-----------1--------------------------|
G|---------2-----------2--------3-----------3--------3--2-----------|
D|------------3-----------3--------3-(0)-------3-----------3--0-----|
A|------------------------------------4--------------------------1--|
E|------------------------------------------------------------------|



   Am7
e|------------------------|
B|------------------------|
G|-------------------0--2-|   Play the intro 2 times:)
D|----------0--2--3-------|
A|-0--1--3----------------|
E|------------------------|


Verso:
Dm7         Gm7     Am7    Bb7M                  Am7
I feel so unsure      As I take your hand and lead you to the dance floor
Dm                 Gm7                   Am7 Bb7M
As the music dies  Somthing in your eyes     Calls to mind a silver screen
    Am7
And all it's sad goodbyes
Dm                             Gm7                     Am7
I'm never gonna dance again    Guilty feet have got no rythm
Bb7M                         Am7
Though it's easy to pretend    I know you're not a fool
Dm
Should have known better than to cheat a friend
    Gm7                             Am7
And waste the chance that I've been given
Bb7M                             Am7                   Dm
So I'm never gonna dance again   The way I danced with you

Solo:

   Dm Gm7      Am7     Bb7M             Am7         D5
e|---------------------------------------10--12--13--10------|
B|-----------------------------------10--------------------3-|
G|-10--9--10--------10--9--10/12-12-----------------------2--|
D|------------8------------------------------------------0---|
A|-----------------------------------------------------------|
E|-----------------------------------------------------------|


Dm7            Gm7  Am7   Bb7M          Am7
Time can never mend   The careless whispers of a good friend
Dm                                                Gm7
To the heart and mind  (The Little Guitar Solo)   Ignorance is kind


                    E|--------------------------|
                    B|-----5--6--8--8/10--8p6---|
                    G|--7---------------------7-|
                    D|--------------------------|
                    A|--------------------------|
                    E|--------------------------|


Am7 Bb7M                            Am7
    There's no comfort in the truth     Pain is all you'll find

                                                   E|---------------10-|
                                                   B|-----------1-3-10-|
                                                   G|-------0-2-----10-|
                                                   D|-0-2-3------------|
                                                   A|------------------|
                                                   E|------------------|


Dm                             Gm7                     Am7
I'm never gonna dance again    Guilty feet have got no rhythm
Bb7M                         Am7
Though it's easy to pretend    I know you're not a fool

                                                   E|------------------|
                                                   B|-----------1-3----|
                                                   G|-------0-2--------|
                                                   D|-0-2-3------------|
                                                   A|------------------|
                                                   E|------------------|
61.559 exibições

Comentários 2

Composição: George Michael / Lotta Ahlin / M. Hudson / Mylon R. Lefevre / Tim Ryan
Esse não é o compositor? Avise-nos.
Contribuição: brunozolini
Exibir acordes »
publicidade
fechar