Per Aspera Ad Inferi

Ghost

 Ghost Compositor: A Ghoul Writer
Tom: 
		
Intro part 1:


E|---------------------------------------------------------------------------|
B|---------------------------------------------------------------------------|
G|-2-2-2-2-2-2--8--2-2-2-2-2-2--10--2-2-2--11--------------------------------|
D|-2-2-2-2-2-2--8--2-2-2-2-2-2--10--2-2-2--11--------------------------------|
A|-0-0-0-0-0-0--6--0-0-0-0-0-0--8---0-0-0--9---------------------------------|x2
E|---------------------------------------------------------------------------|

     x x x x x     x x x x x x      x x x

Intro part 2:


E|---------------------------------------------------------------------------|
B|---------------------------------------------------------------------------|
G|-2-2-2-2-2-2--8--2-2-2-2-2-2------2-2-2------------------------------------|
D|-2-2-2-2-2-2--8--2-2-2-2-2-2--3---2-2-2--4---------------------------------|
A|-0-0-0-0-0-0--6--0-0-0-0-0-0--3---0-0-0--4---------------------------------|x4
E|------------------------------1----------2---------------------------------|

     x x   x x       x x   x x        x x

Verse:


E|---------------------------------------------------------------------------|
B|---------------------------------------------------------------------------|
G|---------------------------------------------------------------------------|
D|-10-10-10-10-10-10-10-10-10-10-10-10-10-10---------------------------------|
A|-8--8--8--8--8--8--8--8--8--8--8--8--8--8---4~~-3~~------------------------|
E|---------------------------------------------------------------------------|

      x  x     x  x     x  x  x     x  x


E|---------------------------------------------------------------------------|
B|---------------------------------------------------------------------------|
G|---------------------------------------------------------------------------|
D|-10-10-10-10-10-10-6--6--6--6--6--6--6--6---5-4----------------------------|
A|-8--8--8--8--8--8--4--4--4--4--4--4--4--4---3-2----------------------------|
E|---------------------------------------------------------------------------|

      x  x     x  x     x  x  x     x  x


E|---------------------------------------------------------------------------|
B|---------------------------------------------------------------------------|
G|---------------------------------------------------------------------------|
D|-10-10-10-10-10-10-10-10-10-10-10-10-10-10---------------------------------|
A|-8--8--8--8--8--8--8--8--8--8--8--8--8--8---4~~-3~~------------------------|
E|---------------------------------------------------------------------------|

      x  x     x  x     x  x  x     x  x


E|---------------------------------------------------------------------------|
B|---------------------------------------------------------------------------|
G|---------------------------------------------------------------------------|
D|-10-10-10-10-10-10-6--6--6--6--6--6--6--6---5-4----------------------------|
A|-8--8--8--8--8--8--4--4--4--4--4--4--4--4---3-2----------------------------|
E|---------------------------------------------------------------------------|

      x  x     x  x     x  x  x     x  x

.Intro part 2 x2

.Verse                     6
                           6
Pre Chorus: Don't play the 4 the second time, go straight into the Chorus.


E|---------------------------------------------------------------------------|
B|---------------------------------------------------------------------------|
G|-------------------------5-------6-----------------------------------------|
D|-2-2-2-2-2-2--8-2--2-2-2-5-2-2-2-6-----------------------------------------|
A|-2-2-2-2-2-2--8-2--2-2-2-3-2-2-2-4-----------------------------------------|x2
E|-0-0-0-0-0-0--6-0--0-0-0---0-0-0-------------------------------------------|

     x x   x x       x x x   x x x

Chorus:


E|---------------------------------------------------------------------------|
B|---------------------------------------------------------------------------|
G|---------------------------------------------------------------------------|
D|-10-10-10-10-10-10-10-10-10-10-10-10--8-8-8-8-8-8--6-6-6-6-6-6-------------|
A|-8--8--8--8--8--8--8--8--8--8--8--8---6-6-6-6-6-6--4-4-4-4-4-4-------------|x4
E|---------------------------------------------------------------------------|


Bridge:


E|---------------------------------------------------------------------------|
B|---------------------------------------------------------------------------|
G|---------------------------------------------------------------------------|
D|-------------6-------------8-------9---------------------------------------|
A|-5-5-5-5-5-5-4-5-5-5-5-5-5-6-5-5-5-7---------------------------------------|x2
E|-3-3-3-3-3-3---3-3-3-3-3-3---3-3-3-----------------------------------------|

   x x x x x x   x x x x x x   x x x


E|---------------------------------------------------------------------------|
B|---------------------------------------------------------------------------|
G|---------------------------------------------------------------------------|
D|-8-----------10---------9-----------8-10-----------------------------------|
A|-6-----------8----------7-----------6-8--7-7-7-9-9-9-10-10-10--------------|
E|---0-0-0-0-0---0-0-0-0-0--0-0-0-0-0----------------------------------------|

     x x x x x   x x x x x  x x x x x


E|---------------------------------------------------------------------------|
B|---------------------------------------------------------------------------|
G|---------------------------------------------------------------------------|
D|---------------------------------------------------------------------------|
A|-------------------9-h10-10-9-h10-10---------------------------------------|
E|-8-8-8-7-7-7-6-6-6---------------------------------------------------------|



E|---------------------------------------------------------------------------|
B|---------------------------------------------------------------------------|
G|---------------------------------------------------------------------------|
D|-8-----------10---------9-----------8-10-----------------------------------|
A|-6-----------8----------7-----------6-8--7-7-7-9-9-9-10-10-10--------------|
E|---0-0-0-0-0---0-0-0-0-0--0-0-0-0-0----------------------------------------|

     x x x x x   x x x x x  x x x x x


E|---------------------------------------------------------------------------|
B|---------------------------------------------------------------------------|
G|---------------------------------------------------------------------------|
D|--------------------------------------2------------------------------------|
A|-------------------9-h10-10-9-h10-10--2--7-7-7-9-9-9-10-10-10--------------|
E|-8-8-8-7-7-7-6-6-6--------------------0------------------------------------|



E|---------------------------------------------------------------------------|
B|---------------------------------------------------------------------------|
G|---------------------------------------------------------------------------|
D|---------------------------------------------------------------------------|
A|-------------------9-h10-10-9-h10-10---------------------------------------|
E|-8-8-8-7-7-7-6-6-6---------------------------------------------------------|


Solo:


E|---------------------------------------------------------------------------|
B|-12-10-8-10-5--12-10-13-7--12-10-8-10-5--12-10-13-7--12-10-6-9-------------|
G|---------------------------------------------------------------------------|
D|---------------------------------------------------------------------------|
A|---------------------------------------------------------------------------|
E|---------------------------------------------------------------------------|



E|-b15-15~-13-------15-13-b15------------------------------------------------|
B|------------16-13----------------------------------------------------------|
G|---------------------------------------------------------------------------|
D|---------------------------------------------------------------------------|
A|---------------------------------------------------------------------------|
E|---------------------------------------------------------------------------|


Verse: x2
Pre Chorus: x2

Chorus: x4 (The last Chorus has no guitars until the 5th time of singing "Per Aspera Ad Inferi")

Chorus Lead outro:


E|---8-----8-----------------------------------------------------------------|
B|-9---8-9---8-9-6-----------------------------------------------------------|
G|---------------------------------------------------------------------------|
D|---------------------------------------------------------------------------|
A|---------------------------------------------------------------------------|x4
E|---------------------------------------------------------------------------|
2.245 exibições

Comentários 1

Composição: Papa Emeritus Ii
Esse não é o compositor? Avise-nos.
Contribuição: arthurmedeirosu
Exibir acordes »
publicidade
fechar