Ritual

Ghost

 Ghost
Tom: C
Afinação: D G C F A D
		
Introdução:

(Guitarra 1)

   P.M.  .  .  .  .  .  .  .  .  .  .  .  .  .  .

D|----------------------------------------------------|
A|-11-------11-------13----10-------10-------10-------|
F|-10-------10-------10----10-------10-------10-------|
C|-12-12-12-12-12-12-12-12-12-12-12-12-12-12-12-12----|
G|----------------------------------------------------|
D|----------------------------------------------------|


   P.M.  .  .  .  .  .  .  .  .  .  .  .  .  .  .

D|----------------------------------------------------|
A|-11-------11-------13----10-------10-------10-------|
F|-10-------10-------10----10-------10-------10-------|
C|-12-12-12-12-12-12-12-12-12-12-12-12-12-12-12-12----|
G|----------------------------------------------------|
D|----------------------------------------------------|


   P.M.  .  .  .  .  .  .  . . . . . . . .

D|----------------------------------------------------|
A|-8--------8--------8-----8-----8-----8--------------|
F|-9--------9--------9-----7-----7-----7--------------|
C|-10-10-10-10-10-10-10-10-9-9-9-9-9-9-9-9------------|
G|----------------------------------------------------|
D|----------------------------------------------------|


   P.M.  .  .  .  .  .  .  .  .  .        .     .

D|----------------------------------------------------|
A|-11-------11-------11----11-------10-10----10-------|
F|-10-------10-------10----10-------9--9-----9--------|
C|-12-12-12-12-12-12-12-12-12-12-12-11-11-11-11-11----|
G|----------------------------------------------------|
D|----------------------------------------------------|


   P.M.  .  .  .  .  .  .  .  .  .  .  .  .  .  .

D|----------------------------------------------------|
A|-11-------11-------13----10-------10-------10-------|
F|-10-------10-------10----10-------10-------10-------|
C|-12-12-12-12-12-12-12-12-12-12-12-12-12-12-12-12----|
G|----------------------------------------------------|
D|----------------------------------------------------|


   P.M.  .  .  .  .  .  .  .  .  .  .  .  .  .  .

D|----------------------------------------------------|
A|-11-------11-------13----10-------10-------10-------|
F|-10-------10-------10----10-------10-------10-------|
C|-12-12-12-12-12-12-12-12-12-12-12-12-12-12-12-12----|
G|----------------------------------------------------|
D|----------------------------------------------------|


   P.M.  .  .  .  .  .  .

D|----------------------------------------------------|
A|-8--------8--------8-----7--------------------------|
F|-9--------9--------9-----6--------------------------|
C|-10-10-10-10-10-10-10-10-8--------------------------|
G|----------------------------------------------------|
D|----------------------------------------------------|


(Guitarra 2)


D|-------12----------------12----------------12-------|
A|----------15----------------15----------------15----|
F|-12/14-------14----12/14-------14----12/14----------|
C|----------------------------------------------------|
G|----------------------------------------------------|
D|----------------------------------------------------|



Primeira Parte:

       P.M . . . . . . . . . . . .

D|----------------------------------------------------|
A|----------------------------------------------------|
F|----------------------------------------------------|
C|----------------------------------------------------|
G|-3-2------------------------------------------------|
D|-1-0-0-0-0-0-0-0-0-0-5-6-7-0-3-5--------------------|


      P.M  . .   . . .    .

D|----------------------------------------------------|
A|----------------------------------------------------|
F|----------------------------------------------------|
C|----------------------------------------------------|
G|-3-2---2-----2-------10---10-10-10\-----------------|
D|-1-0-0-0-0-0-0-0-0-0-8--x-8--8--8-\-----------------|


      P.M  . . . . . . . . . . . .

D|----------------------------------------------------|
A|----------------------------------------------------|
F|----------------------------------------------------|
C|----------------------------------------------------|
G|-3-2---2--------------------------------------------|
D|-1-0-0-0-0-0-0-0-0-0-5-6-7-0-3-5--------------------|


      P.M  . .   . . .   .

D|----------------------------------------------------|
A|----------------------------------------------------|
F|----------------------------------------------------|
C|----------------------------------------------------|
G|-3-2---2-----2-------8---8-8-8\---------------------|
D|-1-0-0-0-0-0-0-0-0-0-6-x-6-6-6\---------------------|



F5  E5                        (riff 1)
       Tonight we´re summoned
       F5  E5        C5
For a di__vine cause
   F5  E5
Remem_____brance - No
(riff 1)       F5  E5           D5
But for their fu______ture loss


Primeiro Refrão:

Bb5             C5  D5
    This chapel of ritual
Bb5        C5  D5         C5
    Smells of dead human sacrifices
  Bb5
From the altar


Segunda Parte:

 F5  E5                  (riff 1)
Be______duins and nomads
 F5  E5                    C5
Car_ried through the times
         F5  E5                      (riff 1)
Through pes_____tilences and famines
      F5  E5                Bb5
These an_cient scrolls of rhymes

      F5  E5
"Our fal_len angel vexed
    (riff 1)            F5  E5         C5
Was          banished from     the sky
   F5  E5                   (riff 1)
Recite    now from the text
         F5  E5         D5
Pray for All    to die"


Segundo Refrão:

Bb5             C5  D5
    This chapel of ritual
Bb5        C5  D5         C5
    Smells of dead human sacrifices
  G             D5  D5/A  A
From the altar bed

Bb5               C5  D5
    On this night of ritual
Bb5          C5   D5    C5
    Invoking our master
         G              (riff 2)
To procreate the unholy bastard

Riff 2:

            P.M        .          .

D|----------------------------------------------------|
A|----------------------------------------------------|
F|----------------------------------------------------|
C|----------------------------------------------------|
G|-5-5-5-5----5-5-5-5----5-5-5-5----5-5-5-5\----------|
D|----------4----------4----------4-------------------|



Terceira Parte:

   P.M . .     . . . .     . . . .     . . . .

D|----------------------------------------------------|
A|----------------------------------------------------|
F|----------------------------------------------------|
C|----------------------------------------------------|
G|----------------------------------------------------|
D|-2-2-2-2-2/4-5-5-5-5-5/7-8-8-8-8-8\7-5-5-5-5-5\3----|


"Our father
Who art in hell
Unhallowed be thy name
Cursed be the sons and daughters
Of thy Nemesis
Whom are to blame
Thy kingdom come nema"

   P.M . . .    . . . . .    . . . . .    . . . . .

D|----------------------------------------------------|
A|----------------------------------------------------|
F|----------------------------------------------------|
C|----------------------------------------------------|
G|-----------2------------2------------2------------2-|
D|-1-1-1-1-1----1-1-1-1-1----1-1-1-1-1----1-1-1-1-1---|


   P.M . . .    . . . . .    . . . . .    . . . . .

D|----------------------------------------------------|
A|----------------------------------------------------|
F|----------------------------------------------------|
C|----------------------------------------------------|
G|-----------2------------2------------2------------2~|
D|-1-1-1-1-1----1-1-1-1-1----1-1-1-1-1----1-1-1-1-1---|



Primeiro Solo:  F5  E5  (riff 1)
                F5  E5  C5
                F5  E5  (riff 1)
                F5  E5  Db5


D|---------------12~--12~--10p8-10p8-10-10/12~--------|
A|------------12--------------------------------------|
F|-------9-12-----------------------------------------|
C|-7-8-9----------------------------------------------|
G|----------------------------------------------------|
D|----------------------------------------------------|



D|-14b15r--14~----------------------------------------|
A|---------------12b13r--12~---/15--13--12b13r12b13r12|
F|----------------------------------------------------|
C|----------------------------------------------------|
G|----------------------------------------------------|
D|----------------------------------------------------|



D|----------------------------------------------------|
A|-11b12r11~~-----------------------------------------|
F|----------------------------------------------------|
C|----------------------------------------------------|
G|----------------------------------------------------|
D|----------------------------------------------------|



Quarta Parte:

F5  E5                     (riff 1)
       Tonight we summoned
           F5  E5       C5
For His unholy    fiend
     F5  E5         (riff 1)
Now ce______lebrate
    F5  E5  D5
The End


Terceiro Refrão:

Bb5             C5  D5
    This chapel of ritual
Bb5        C5  D5         C5
    Smells of dead human sacrifices
  G             D5  D5/A  A
From the altar bed

Bb5               C5  D5
    On this night of ritual
Bb5          C5   D5    C5
    Invoking our master
         G               D5     D5/A  A
To procreate the unholy bastard


Segundo Solo:

(Parte 1}


D|----------------------------------------------------|
A|----------------------------------------------------|
F|-12b14r12--10--9--7~---9b10~------------------------|
C|-------------------------------7--8~----------------|
G|----------------------------------------------------|
D|----------------------------------------------------|



D|----------------------------------------------------|
A|----------------------------------------------------|
F|-10-10-10--9--7---------------7---9b10r9~-----------|
C|-----------------10--7~---10------------------------|
G|----------------------------------------------------|
D|----------------------------------------------------|



D|----------------------------------------8--10~------|
A|------------------------8--10/13--10~---------------|
F|-9h10-9~-7-----------7------------------------------|
C|------------10--9~----------------------------------|
G|----------------------------------------------------|
D|----------------------------------------------------|



D|-8-10-12-13-12h13p12p10-12-13-12\-------------------|
A|----------------------------------------------------|
F|----------------------------------------------------|
C|----------------------------------------------------|
G|----------------------------------------------------|
D|----------------------------------------------------|


(Parte 2)


D|-12p10----12p10----12h13-12p10----12p10----10h12----|
A|-------11-------11-------------10-------10----------|
F|----------------------------------------------------|
C|----------------------------------------------------|
G|----------------------------------------------------|
D|----------------------------------------------------|



D|-13p10----13p10-------15----17p13------15p13-12~----|
A|-------11-------11/13----13-------15~---------------|
F|----------------------------------------------------|
C|----------------------------------------------------|
G|----------------------------------------------------|
D|----------------------------------------------------|



D|-7h8h10-7~------------------------------------------|
A|------------8--8h10-10~----10-10b11r10-8-10~--------|
F|----------------------------------------------------|
C|----------------------------------------------------|
G|----------------------------------------------------|
D|----------------------------------------------------|


(Parte 3)


D|----------------------------------------------------|
A|----------------------------------------------------|
F|-7--9--10--10/17--14~~----7--9--10--10/12--9~~------|
C|----------------------------------------------------|
G|-5--7--8---8-/15--12~~----5--7--8---8-/10--7~~------|
D|----------------------------------------------------|



D|----------------------------------------------------|
A|----------------------------------------------------|
F|-12--10--9\5--5--5/7~~----7--9--10--12--12/14~~-----|
C|----------------------------------------------------|
G|-10--8---7\3--3--3/5~~----5--7--8---10--10/12~~-----|
D|----------------------------------------------------|


(Parte 4)


D|----------------------------------------------------|
A|----------------------------------------------------|
F|-10-------------------------------------------------|
C|-8--------------------------------------------------|
G|----------------------------------------------------|
D|----------------------------------------------------|

Comentários 18

  • Lucas Lucas: Postado em 07/02/2014 14:25

    Parabéns Vinícius Dias, mais uma excelente vídeo aula.

  • lucas96000 lucas96000: Postado em 05/02/2014 23:34

    pelo som da cuíca seu cú ja levou pika

  • lukewilkshire.lukwill lukewilkshire.lukwill: Postado em 03/02/2014 18:20

    Muito do capeta essa banda, não gosto

  • luis.denega luis.denega: Postado em 13/12/2013 11:06

    Monstrance Clock pls

  • José José: Postado em 27/11/2013 21:05

    Capeta puro (não curto) mas o instrumental é legal de aprender.

  • hoquer hoquer: Postado em 10/11/2013 20:30

    Show de bola o vídeo aula mas como ficaria a regulagem de efeitos na digitech RP90 se puderem me ajudar ficarei crato .

  • Érly Érly: Postado em 27/10/2013 10:49

    Ghost eu Gosto!!! (y)

  • Érly Érly: Postado em 27/10/2013 10:44

    Ghost eu Gosto !!! hehe

  • cesar.winters.7 cesar.winters.7: Postado em 08/10/2013 23:09

    ok,mas qual é o pull of correto no primeiro solo? da 10 pra 8 igual a cifra ou de 10 pra 7 igual na video-aula?

    • murilo97 murilo97: Postado em 26/10/2013 22:47

      Comentário removido

Exibindo 10 de 18 comentários Mostrar mais ver todos »
Composição: As Divine Grace
Esse não é o compositor? Avise-nos.
Contribuição: diegodelarge Correções: v.inny e mais 1 »
Exibir acordes »
publicidade
fechar