Drão

Gilberto Gil

 Gilberto Gil
Tom: F
		

          C7+                           Dm7/9
|--------0-----------------|--------------0-1-3-0-----|
|--1h3------0---------0--- |-----0--1--3--------------|
|-------------   2---------|--------------------------|
|--------------------------|--------------------------|
|--------------------------|--------------------------|
|--------------------------|--------------------------|
|--------------------------|-------------------=------|


C7M                              Fm/C
Drão, o amor da gente é como um grão
                 Am  Am7M
Uma semente de ilusão
                      Am7/9
Tem que morrer pra germinar
Ebº               Dm7/9
Plantar n'algum lugar
              C7+/9          E7/9b/13
Ressuscitar no chão nossa semeadura
Am           Gm7          C7/9b
Quem poderá fazer, aquele amor morrer
F7M              Fm6
Nossa caminhadura
Fm(7M)     Fm6     Fm(7M)       (C7M  Dm7/9) 4x
Dura caminhada, pela estrada escura

C7M                    Fm/C
Drão não pense na separação
                  Am   Am7M
Não despedace o coração
                    Am7/9
O verdadeiro amor é vão
Ebdim          Dm7/9            C7+/9
Entende-se infinito, imenso monolito
          E7/9b/13
Nossa arquitetura
Am7          Gm7           C7/9b
Quem poderá fazer, aquele amor morrer
F7M             Fm6   Fm(7M)       Fm6
Nossa caminha dura, cama de tatame
Fm(7M)         C7M  Dm7/9
Pela vida afora


          C7+                           Dm7/9
|--------0-----------------|--------------0-1-3-0-----|
|--1h3------0---------0--- |-----0--1--3--------------|
|-------------   2---------|--------------------------|
|--------------------------|--------------------------|
|--------------------------|--------------------------|
|--------------------------|--------------------------|
|--------------------------|-------------------=------|



C7M                       Fm/C
Drão os meninos são todos sãos
                      Am  Am7M
Os pecados são todos meus
                     Am7/9
Deus sabe a minha confissão
Ebdim           Dm7/9
Não há o que perdoar
                     C7+/9
Por isso mesmo é que há
                E7/9b/13
De haver mais compaixão
Am7          Gm7          C7/9b
Quem poderá fazer, aquele amor morrer
F7M                    Fm6
Se o amor é como um grão
Fm(7M)           Fm6
Morre nasce trigo
Fm(7M)        C7M  Dm7/9
Vive morre pão
C7M   Dm7/9   C7M
Drão,         Drão

Comentários 1

  • ibrahimcheva ibrahimcheva: Postado em 03/04/2012 19:55

    legal gente comenta la meu video no youtube:Marlon e Jonatas Toca Patience Guns Roses

Composição: Gilberto Gil
Esse não é o compositor? Avise-nos.
Contribuição: Pedro Henrique Correções: samuel , Del Finger e mais 2 »
Exibir acordes »
publicidade
fechar