Sítio do Pica-Pau Amarelo

Gilberto Gil

 Gilberto Gil
Tom: G
		
Intro: C Bm Am Bm C Bm Am Bm C Bm Am Bm C Bm D/C

G                    E7
Marmelada de banana, bananada de goiaba
A7                  A7 C#/B D/C
Goiabada de marmelo
G/B        Bb°       D/A  Am7 D7
Sítio do Pica-Pau amarelo
G          G#°       D/A  Bb(#5) Bm7 D/C
Sítio do Pica-Pau amarelo

( C Bm Am Bm C Bm Am Bm C Bm Am Bm C Bm D/C )

G                    E7
Boneca de pano é gente, sabugo de milho é gente
A7                  A7 C#/B D/C
O sol nascente é tão belo
G/B        Bb°       D/A  Am7 D7
Sítio do Pica-Pau amarelo
G          G#°      D/A  Bb(#5) Bm7 D/C
Sítio do Pica-Pau amarelo

( C Bm Am Bm C Bm Am Bm C Bm Am Bm C Bm D/C )

G
Rios de  prata, pirata
E7                  A7                C#/B D/C
Vôo sideral na mata, universo paralelo
G/B        Bb°      D/A  Am7 D7
Sítio do Pica-Pau amarelo
G          G#°       D/A  Bb(#5) Bm7 D/C
Sítio do Pica-Pau amarelo

( C Bm Am Bm C Bm Am Bm C Bm Am Bm C Bm D/C )

G                    E7
No país da fantasia, num estado de euforia
A7                  A7 C#/B D/C
Cidade polichinelo
G/B        Bb°      D/A  Am7 D7
Sítio do Pica-Pau amarelo
G          G#°      D/A  Bb(#5) Bm7 D/C
Sítio do Pica-Pau amarelo

( C Bm Am Bm C Bm Am Bm C Bm Am Bm C Bm D/C )
Sítio do pica pau amarelo

E|--12-10----------------10-12-12-10-------------------------------|
B|--------12-10----10-12------------12-10----10~-------------------|
G|--------------11------------------------11-----------------------|  (2x)
D|-----------------------------------------------------------------|
A|-----------------------------------------------------------------|
E|-----------------------------------------------------------------|



E|----7-10-10-8-7-8-7-----4-7-7-5-4-5-4-----9-12-12-10-9-10-9------|
B|--8-------------------5----------------10------------------------|
G|-----------------------------------------------------------------|
D|-----------------------------------------------------------------|
A|-----------------------------------------------------------------|
E|-----------------------------------------------------------------|



E|---7-10-10-------------------------------------------------------|
B|-8---------8-10-8------------------------------------------------|
G|------------------11-9-7-----------------------------------------|
D|-----------------------------------------------------------------|
A|-----------------------------------------------------------------|
E|-----------------------------------------------------------------|



E|---7-10-10-12-13-12-10-12-10-------------------------------------|
B|-8---------------------------------------------------------------|
G|-----------------------------------------------------------------|
D|-----------------------------------------------------------------|
A|-----------------------------------------------------------------|
E|-----------------------------------------------------------------|
126.936 exibições

Comentários 3

  • Thaís Thaís: Postado em 12/11/2014 22:11

    Empolgante ! ^^

  • Thaís Thaís: Postado em 02/05/2014 14:08

    Massa

  • Chico Chico: Postado em 26/11/2011 01:07

    Facinha e legal =D

Composição: Bob Dipiero / Gilberto Gil / Jesse McCartney & T-Pain
Esse não é o compositor? Avise-nos.
Contribuição: nickboy Correções: Samuel e mais 2 »
Exibir acordes »
publicidade
fechar