Feel Good Inc.

Gorillaz

 Gorillaz
Introdução

Shake it, shake it, shop with it...

Parte 1
                          .
F|--------------------------------------------|
C|--------------------------------------------|
G|---------4-3--1-1-4-3-----------------------|
D|-1-1-3-4--------------4-1-------------------|

Parte 2

F|--------------------------------------------|
C|--------------------------------------------|
G|---------4-3--1-1-4-3-----1/8\3-------------|
D|-1-1-3-4--------------4-1-------------------|

Parte 3
                          .
F|--------------------------------------------|
C|--------------------------------------------|
G|---------4-3--1-1-4-3-----------------------|
D|-1-1-3-4--------------4-1-------------------|

Primeira parte

City's breaking down on a camel's back...

Parte 1 (tocar 4x )

F|--------------------------------------------|
C|--------------------------------------------|
G|---------4-3--1-1-4-3-----1/8\3-------------|
D|-1-1-3-4--------------4-1-------------------|

Parte 2

F|--------------------------------------------|
C|--------------------------------------------|
G|-8-6-3--------------------------------------|
D|-------4-1--1-1-----------------------------|

Refrão sem baixo

Windmill, windmill for the land...

Segunda parte Hap ( Tocar 2x )

Laughing gas,these hazmats, fast cats... 

Parte 1
                          .
F|--------------------------------------------|
C|--------------------------------------------|
G|---------4-3--1-1-4-3-----------------------|
D|-1-1-3-4--------------4-1-------------------|

Parte 2

F|--------------------------------------------|
C|--------------------------------------------|
G|---------4-3--1-1-4-3-----1/8\3-------------|
D|-1-1-3-4--------------4-1-------------------|

Introdução 2

Shake it, shake it, shop with it...

Parte 1

F|--------------------------------------------|
C|--------------------------------------------|
G|---------4-3--1-1-4-3-----1/8\3-------------|
D|-1-1-3-4--------------4-1-------------------|

Segundo Refrão sem baixo

Windmill, windmill for the land...

Introdução 3 Final ( tocar 2x ) 

Dont shock, shit it, get it,bleep how you... 

Parte 1

F|--------------------------------------------|
C|--------------------------------------------|
G|---------4-3--1-1-4-3-----1/8\3-------------|
D|-1-1-3-4--------------4-1-------------------|

Parte 2
                          .
F|--------------------------------------------|
C|--------------------------------------------|
G|---------4-3--1-1-4-3-----------------------|
D|-1-1-3-4--------------4-1-------------------|

Tocando com afinação padrão

Pra Baixo quatro cordas Eb:

Parte 1 ( tocar 4x )

G|--------------------------------------------|
D|---------9-8--6-6-9-8-----6/13\8------------|
A|-6-6-8-9--------------9-6-------------------|
E|--------------------------------------------|

Parte 2

G|-8-6----------------------------------------|
D|-----8--------------------------------------|
A|-------9-6--6-6-----------------------------|
E|--------------------------------------------|

Pra Baixo cinco cordas Eb:

Primeira parte

Parte 1 ( tocar 4x )

G|--------------------------------------------|
D|--------------------------------------------|
A|---------------------------2/6\2------------|
E|---------7-6--4-4-7-6-----------------------|
B|-4-4-6-7--------------7-4-------------------|                

Parte 2

G|--------------------------------------------|
D|--------------------------------------------|
A|-6-4----------------------------------------|
E|-----6--------------------------------------|
B|-------7-4--4-4-----------------------------|

Comentários 8

  • Pablo Pablo: Postado em 27/10/2014 18:32

    Pô cara, groove fácil de mais e realmente muito bom :)

  • Lino Lino: Postado em 25/06/2014 18:59

    alguem aqui sabe um bom baixo pra tocar esse tipo de musica?

  • victor victor: Postado em 06/10/2013 14:15

    po até que é bem facil

  • mariomusebass mariomusebass: Postado em 08/09/2012 17:45

    Muito boa a musica e tbm fácil.

  • otavio.bros otavio.bros: Postado em 31/07/2012 10:56

    facim ^^
    mais tem uma mais facim ainda ^^
    A/--0---0-3-5/8-7----5--5-8-7-3-0/12 ^^

  • thalesdeluca thalesdeluca: Postado em 20/03/2012 22:40

    facil a unica coisa q prescisa é de um pouco de velocidade para acompanhar , mas ta blz

  • extremista extremista: Postado em 23/08/2011 16:03

    Se quiser tocar sem afinar para Eb, abafa as cordas próximo a ponte e toca com palheta que fica legal tmbm.

  • tisbittlara tisbittlara: Postado em 03/04/2011 19:35

    facim

Composição: Curtis McKonly / David Jolicouer / Gorillaz / J. P. Taïeb / Maria Victoria Etxaniz Jimenez
Esse não é o compositor? Avise-nos.
Contribuição: Reginaldo Correções: Reginaldo , Reginaldo e mais 3 »
publicidade
fechar