Feel Good Inc.

Gorillaz

 Gorillaz
Afine E para Eb

Intro:

G/------------------------------------------------------| 
D/------------------------------------------------------|
A/--------------2-1---1-0-------------------------------| 
Eb/--0---0-2-3-------------5---5-8--7-----3--0----------| 
 

G/------------------------------------------------------| 
D/------------------------------------------------------| 
A/--------------2-1---1-0-------------------------------| 
Eb/--0---0-2-3-------------5---5-8--7-----3--0---12-12--| 
 
G/------------------------------------------------------| 
D/------------------------------------------------------|
A/--------------2-1---1-0-------------------------------| 
Eb/--0---0-2-3-------------5---5-8--7-----3--0----------| 
(2x)

Verso:
G/------------------------------------------------------| 
D/------------------------------------------------------| 
A/--------------2-1---1-0-------------------------------| 
Eb/--0---0-2-3-------------5---5-8--7-----3--0---12-12--| 
(4x)

Ponte:
G/------------------------| 
D/------------------------| 
A/--6--4------------------| 
Eb/--------7------5-3-0---|
(1x)

Daí fica um tempo sem Baixo e depois volta no
verso(6x)

Mais um pouco sem Baixo e volta no verso(6x)
E acaba!!!


_______________________________________________________
Contribuição: Gabriel Ravanhani(ravanhani10@hotmail.com)

Comentários (6)

  • victor victor: Postado em 06/10/2013 14:15

    po até que é bem facil

  • mariomusebass mariomusebass: Postado em 08/09/2012 17:45

    Muito boa a musica e tbm fácil.

  • otavio.bros otavio.bros: Postado em 31/07/2012 10:56

    facim ^^
    mais tem uma mais facim ainda ^^
    A/--0---0-3-5/8-7----5--5-8-7-3-0/12 ^^

  • thalesdeluca thalesdeluca: Postado em 20/03/2012 22:40

    facil a unica coisa q prescisa é de um pouco de velocidade para acompanhar , mas ta blz

  • extremista extremista: Postado em 23/08/2011 16:03

    Se quiser tocar sem afinar para Eb, abafa as cordas próximo a ponte e toca com palheta que fica legal tmbm.

  • tisbittlara tisbittlara: Postado em 03/04/2011 19:35

    facim

Composição: Curtis McKonly / David Jolicouer / Gorillaz / J. P. Taïeb / Maria Victoria Etxaniz Jimenez
Esse não é o compositor? Avise-nos.
  1. Tudo Que Você Quiser - Luan Santana Manteve-se 5.417 exibições
  2. Lepo Lepo - Psirico Manteve-se 3.901 exibições
  3. Mozão - Lucas Lucco Manteve-se 3.749 exibições
  4. Logo Eu - Jorge e Mateus Manteve-se 3.341 exibições
  5. Gaveta - Fernando e Sorocaba Manteve-se 2.999 exibições
  6. Só Os Loucos Sabem - Charlie Brown Jr. Manteve-se 2.698 exibições
  7. Pra Você - Onze:20 Manteve-se 2.391 exibições
  8. Tempo Perdido - Legião Urbana Manteve-se 2.189 exibições
  9. Fui Fiel - Gusttavo Lima Manteve-se 2.019 exibições
  10. Na Linha do Tempo - Victor e Leo Manteve-se 1.925 exibições
  1. Jorge e Mateus- Manteve-se 20.025 exibições
  2. Legião Urbana- Manteve-se 17.810 exibições
  3. Luan Santana- Manteve-se 15.901 exibições
  4. Charlie Brown Jr.- Manteve-se 15.521 exibições
  5. Fernandinho- Manteve-se 13.364 exibições
  6. Thalles Roberto- Manteve-se 10.046 exibições
  7. Aline Barros- Manteve-se 9.582 exibições
  8. Católicas- Manteve-se 9.431 exibições
  9. Victor e Leo- Manteve-se 9.367 exibições
  10. Gusttavo Lima- Manteve-se 8.996 exibições

Cifras e tabs

Fórum Cifra Club

Aprenda

Cifra Club News

Mais Serviços Cifra Club ID

Studio Sol

©1996 - 2014 Cifra Club · o primeiro, maior e mais acessado do Brasil · 329 mil músicas · 5.9 milhões pessoas cadastradas

publicidade
fechar