Tabbed by: SFX(SFX*)

Tuning: C# F# D G

Riff 1:
G:---------------
D:---------------
F#:5------------3
C#:----5-5--6----

Riff 2:
G:--------------------------------
D:--------------------------------
F#:----------------------------3-3
C#:5-5-5-5-5-5-5-5-6-6-6-6-6-6----

Riff 3:
G:----------------------------------------------------------------
D:----------------------------------------------------------------
F#:---------------------------------------------------------------
C#:5-5-5-5-5-5-5-5-3-3-3-3-3-3-3-3-5-5-5-5-5-5-5-5-3-3-3-3-3-3-3-3

G:----------------------------------------------------------------
D:----------------------------------------------------------------
F#:3-3-3-3-3-3-3-3-5-5-5-5-5-5-5-5--------------------------------
C#:--------------------------------5-5-5-5-5-5-5-5-6-6-6-6-6-6-6-6

Riff 4
G:--------
D:--------
F#:-------
C#:0--3--5

Riff 1 x 3
Riff 2 x 1
Riff 1 x 3
Riff 2 x 1
Riff 3 x 1
Riff 4 x 8
Riff 3 x 1
Riff 1 x 3
Riff 2 x 1
Riff 1 x 3
Riff 2 x 1
Riff 3 x 2

The New SFX Nation: http://*

I pretty sure this is right, so play the song, you know you want to.  
If your just wanting to vent about how right/wrong I am, then email 
me at SFX*
128 exibições

Comentários 0

Composição: Carol Washington / Jorge Bruno
Esse não é o compositor? Avise-nos.
Consegui tocarAinda não conseguiram tocar essa música. Seja o primeiro!
    Não consegui tocar
    publicidade
    fechar