Minority

Green Day

 Green Day
   ||4x                                     ||
Gb:||---------|---------|---------|---------||
Db:||---------|---------|---------|---------||
Ab:||-3-3-3-3-|---------|---------|---------||
Eb:||---------|-1-1-1-1-|-3-3-3-3-|-1-1-1-1-||


Verse
   C        G        F        C        C        G        F        G
Gb:|-----------------|-----------------|-----------------|-----------------|
Db:|-----2-0---------|-3-3-2-0---------|-----2-0---------|-----------------|
Ab:|-3-3---------2-0-|---------3-3-2-0-|-3-3---------2-0-|-------------0-2-|
Eb:|---------3-3-----|-----------------|---------3-3-----|-1-1-0-1-3-3-----|

  C        G        F        C        C        F        G        C   G
Gb:|-----------------|-----------------|-----------------|-----------------|
Db:|-----2-0---------|-3-3-2-0---------|-----2---3-3-2-0-|-----------------|
Ab:|-3-3---------2-0-|---------3-3-2-0-|-3-3---3---------|-----0-2-3-2-----|
Eb:|---------3-3-----|-----------------|-----------------|-3-3-------------|


Chorus Bridge:(now it's more comfortable to play)

Gb:|------------------|------------------|
Db:|------------------|------------------|
Ab:|----------------7-|-8-8-8-8----------|
Eb:|-5-5-5-5-5-5-5----|----------8-8-8-8-|

Gb:|------------------|------------------|
Db:|------------------|------------------|
Ab:|------------------|------------------|
Eb:|-5-5-5-5-5-5-5--0-|-1-1-1-1--3-3-3-3-|

Gb:|------------------|------------------|
Db:|------------------|------------------|
Ab:|----------------7-|-8-8-8-8----------|
Eb:|-5-5-5-5-5-5-5----|----------8-8-8-8-|
                                                     Bass Fill(instead of last bar)
Gb:|------------------|--------------------------|   |--------------------------|
Db:|------------------|--------------------------|   |------------------2-5-----|
Ab:|------------------|------------------------2-|   |---------------2-5------2-|
Eb:|-5-5-5-5-5-5-5--0-|-3-3--0-3-3--0-3-3--0-3---|   |-3-3--0-33-0-33-----------|

Chorus
Verse
Chorus
Bridge
Verse
(Repeat first 4 bars of verse)
Chorus x2
Fade out w/ Chorus

_______________________________________________________
Contribuição: Luiz Henrique Costa de Verney(luizhcv@bol.com.br)

Comentários 0

Composição: Billie Joe Armstrong / Green Day / Moore / Natalie Hinds / Robert Thiele / Tommy Torres
Esse não é o compositor? Avise-nos.
Consegui tocarAinda não conseguiram tocar essa música. Seja o primeiro!
    Não consegui tocar
    publicidade
    fechar