Grito de Ódio!

Gritos do Espírito Santo

Sem foto do Gritos do Espírito Santo Compositor: Chuck / Zé
Intro e Verso

G|-----------------|
D|-----------------|
A|-----------------|
E|-000---3-5-------|

G|-----------------|
D|-----------------|
A|-----------------|
E|-2-22-22-22------|

Na segunda vez faz 

E|-2-22-22-22-2/---|

Durante o solo "Intro e Verso" faz isso ate...

E|-2-22-22-20------|

Parte Final

G|-------------------------|
D|-------------------------|
A|-------787--------9109---| X2
E|-0000-------0000---------|

G|-------------------------|
D|-------------------------|
A|-------7878--------910910---| X2
E|-00000-------00000---------|

"Intro e Verso"

e termina

G|-----------------|
D|-----------------|
A|-----------------|
E|-000---3-5-3-0---|
306 exibições

Comentários 0

Composição: Sabe quem é o compositor? Envie pra gente. Contribuição: ...
Consegui tocarAinda não conseguiram tocar essa música. Seja o primeiro!
    Não consegui tocar
    publicidade
    fechar