Crazy Train (guitar Hero 4)

Guitar Hero

 Guitar Hero Compositor: Ozzy Osbourne
G|--------------------------------------------------|
D|--------------------------------------------------|
A|--------------------------------------------------|
E|--2--2--------------5--5------0--0----------------|

G|--------------------------------------------------|
D|--------------------------------------------------|
A|--------------------5--5--------------------------|
E|--2--2------------------------0--0----------------|

G|--------------------------------------------------|
D|--------------------------------------------------|
A|--------------------------------------------------|
E|--2--2--------------5--5------0--0----------------|

G|--------------------------------------------------|
D|--------------------------------------------------|
A|--------------------5-----------------------------|
E|--2--2-----------------------0--------------------|

G|--------------------------------------------------|
D|-------------------------7-----6----4----2--------|
A|--0----0----0----0----0-----0---------------------|
E|--------------------------------------------------|
                                                   
G|--------------------------------------------------|
D|--------------------------------------------------|
A|---------------------5-------------0--------------|
E|--2--0--2------2--2-------2--2--4-----4--2--0-----|

G|--------------------------------------------------|
D|--------------------------------------------------|
A|--------------------------------------------------|
E|--5-------(5)-4--2--0----------5h7-5--4-----------|

G|--------------------------------------------------|
D|--------4-----4-----4-----4-----4-----4-----4-----|
A|--------------------------------------------------|
E|--2--2-----2-----2-----2-----2-----2-----2-----2--|

G|--------------------------------------------------|
D|--------------------------------------------------|
A|--------------------------------------------------|
E|--5----------4--2--0----------5h7-5--4------------|
                                                
G|--------------------------------------------------|
D|--------------------------------------------------|
A|---------------------0----------------------------|
E|--2--0--2------2--4-------4--2--0----2--4~--------|
                                                 
G|--------------------------------------------------|
D|--------------------------------------------------|
A|---------------------5----5--5--------------------|
E|--2--0--2------2--4-------------0------2--4-------|

G|--------------------------------------------------|
D|--------------------------------------------------|
A|---------------------0----------------------------|
E|--2--0--2------2--4-------4--2--0----2--4~--------|
                                                 
G|--------------------------------------------------|
D|--------------------------------------------------|
A|---------------------5----5--5--------------------|
E|--2--0--2------2--4-------------0----0--4--0------|

G|--------------------------------------------------|
D|--4--4--4--4--4--4--2--2--0--0--0--0--0--0--------|
A|--------------------------------------------4--4--|
E|--------------------------------------------------|

G|--------------------------------------------------|
D|--------------------------------------------------|
A|--2--2--2--2--0--0--------------------------------|
E|--------------------4--4--2--2--2--2--2--2--2--2--|

G|--------------------------------------------------|
D|--4--4--4--4--4--4--2--2--0--0--0--0--0--0--------|
A|--------------------------------------------4--4--|
E|--------------------------------------------------|

G|--------------------------------------------------|
D|--------------------------------------------------|
A|--2--2--2--2--0--0-----------------------0--2--4--|
E|--------------------4--4--2--2--0--2--4-----------|

G|--------------------------------------------------|
D|--4--4--4--4--4--4--2--2--0--0--0--0--0--0--------|
A|--------------------------------------------4--4--|
E|--------------------------------------------------|

G|--------------------------------------------------|
D|--------------------------------------------------|
A|--2--2--2--2--0--0--------------------------------|
E|--------------------4--4--0--0--0--0--0--0--0--0--|
251 exibições

Comentários 0

Composição: Sabe quem é o compositor? Envie pra gente. Contribuição: Edinho
Consegui tocarAinda não conseguiram tocar essa música. Seja o primeiro!
    Não consegui tocar
    publicidade
    fechar