Slow Ride

Guitar Hero

 Guitar Hero Compositor: Foghat
Tom: D
		
Intro:

E|-----------------------------------------------------------|
B|-----------------------------------------------------------|
G|-2--2--2--2--2--2---2---------------2--2-----2--2-----2----|
D|-2--2--2--2--2--2---2------------2--2--2--2--2--2--2--2----|
A|-0---------------------0-3-0-2-3B|--0--------0--------0----|
E|--------------------------------------------------------3B-|



E|------------------------------------------------------------------|
B|------------------------------------------------------------------|
G|-2--2--2--2--2--2--2--2--------------2--2--2-----2--2--2--2--2--2-|
D|-2--2--2--2--2--2--2--2-----------2--2--2--2--2--2--2--2--2--2--2-|
A|-0-----------------------3--0--3--0-----------0--------------0--0-|
E|------------------------------------------------------------------|


Riff:

E|------------------------------------------------------------------|
B|------------------------------------------------------------------|
G|-2--2--2----7--5---2---2--2--2--2---2--2----7---5---2--2--2--2--2-|
D|-2--2--2----7--5---2---2--2--2--2---2--2----7---5---2--2--2--2--2-|
A|-0--------5----3---0------------0---------5-----3---0-------------|
E|------------------------------------------------------------------|

  Slow Ride               Take it Easy (Repeat Riff 1 two more times)

Riff 2:

E|-------------------------------------------------------------------|
B|-------------------------------------------------------------------|
G|----2-----2-----2--2----2---2--2--2------2--2-----2--2--2--2--2--2-|
D|-2--2--2--2--2--4--4----4---4--4--4---2--2--2--2--2--4--4--4--4--4-|
A|-0-----0-----0------------------------0--------0-------------------|
E|-------------------------------------------------------------------|

  I'm in the mood                       The Rythm is right
(repeat Riff 2 for) Move to the Music   We can roll all night (then..)

E|-------------------------------------------------------------------|
B|-1---------------3-------------------------------------------------|
G|-2---------------2---------------2----------2-----2---------2----2-|
D|-2---------------4----------2----2-----2----2-----2----2----2----2-|
A|-0---------------0----------0----------0----------------0----------|
E|-------------------------------------------------------------------|


  (AM) Ooh       (D/A)        Slow  ride
E|-------------------------------------------------------------------|
B|---------------------------------------------1-----------3---------|
G|-----2-----2---------------2-----------------2-----------2---------|
D|-2---2-----2---------2-----2------2----------2-----------4---------|
A|-0-------------------0------------0----------0-----------0---------|
E|-------------------------------------------------------------------|

 (Then back to Riff 1 two times)             (AM)        (D/A)   THEN

Riff 3:

E|-------------------------------------------------------------------|
B|-------3--3----------3--3------------------------------------------|
G|-2--2--2--2----2--2--2--2------2---2--------2---2-------2----2-----|
D|-2--2--4--4----2--2--4--4---2--2---2---2----2---2---2---2----2---0-|
A|-0--0--0--0----0--0--0--0---0----------0------------0--------------|
E|-------------------------------------------------------------------|

  Slow down     Go down       Got to get your loving one more time

E|-----------------------------------------------------------------|
B|---------3----3----------3--3------------------------------------|
G|-2---2---2----2----2--2--2--2------------------------------------|
D|-2---2---4----4----2--2--4--4---5---3-----------------------2~~~-|
A|-0---0---0----0----0--0--0--0-----------5---3---5s---10---0~~~~--|
E|-----------------------------------------------------------8-----|

  Hold me           Roll me      Slow ridin' woman you're so fine

E|-5s3s5~~-------------------------5s3s5~~------------------------|
B|--------5s3s5~--------5------------------5s3s5~--------5--------|
G|---------------6s4s6~----6b---------------------6s4s6~----6b----|
D|-----------------------------7~~------------------------------7-|
A|----------------------------------------------------------------|
E|----------------------------------------------------------------|



E|----------------5----------------------------10--8--10b--8-----|
B|------------------------------------------10----------------10-|
G|----6--7--8--9~---7br-6b--------6-7-8-9~-----------------------|
D|-7-----------------------7~---7--------------------------------|
A|---------------------------------------------------------------|
E|---------------------------------------------------------------|
(Riff 2x) Slow Ride  Take it easy

(Riff 3) Slow down Go down got to get your loving one more time
(Riff 4) Hold me Roll me Slow ridin' woman you're so fine

  (Here's a part after Got to get your loving one more time)


E|-17-------17--------17--------17----------17s21---17-------------|
B|-----17--------17-------17----------17------------------17---15--|
G|-----------------------------------------------------------------|
D|-----------------------------------------------------------------|
A|-----------------------------------------------------------------|
E|-----------------------------------------------------------------|
96.607 exibições

Comentários 1

  • dumba dumba: Postado em 02/03/2012 15:31

    classicaaaa do guitar hero!!!!

Composição: Sabe quem é o compositor? Envie pra gente. Contribuição: shaolin Correções: ana22lu e mais 1 »
Exibir acordes »
publicidade
fechar