Breakdown

Guns N' Roses

 Guns N' Roses
G||------------------|--------------------|--0--------------0--|
D||------------------|--0--------------4--|--------------------|
A||------------------|--------------------|--------------------|
E||------------------|--------------------|--------------------|


                                                               
--0--------------0--|--2--------------2--|--0--------2--------|
--------------------|--------------------|--------------------|
--------------------|--------------------|--------------------|
--------------------|--------------------|--------------------|


                                                              
-----------0--------|--0--------2--------|-------------------|
--0-----------------|--------------------|--0----------------|
--------------------|--------------------|-------------------|
--------------------|--------------------|-------------------|


                                                               
-------------------|-------------------|----------------------|
--0----------------|--0----------------|--0-------------------|
-------------------|-------------------|-----------------0-2--|
-------------------|-------------------|---------------2------|


                                                                
---------------------|---------------------|-------------------|
-----------------0---|---------------------|-------------------|
--3------------3-----|--2------------2-3---|--0----------------|
---------------------|---------------------|-------------------|


                                                                   
----------------------|---------------------|---------------------|
--0-------------------|-----------------0---|---------------------|
-----------------0-2--|--3------------3-----|--2------------2-3---|
---------------2------|---------------------|---------------------|


                                                                  
-------------------|--0------0------------|----------------------|
-------------------|------------4----2----|--0-------------------|
--0----------------|----------------------|-----------------0-2--|
-------------------|----------------------|---------------2------|


                                                                
---------------------|---------------------|-------------------|
-----------------0---|---------------------|-------------------|
--3------------3-----|--2------------2-3---|--0----------------|
---------------------|---------------------|-------------------|


                                                                 
----------------------|--------------------|--------------------|
--0-------------------|---------------0----|--------------------|
-----------------0-2--|--3-----------------|--2------------3----|
---------------2------|--------------------|--------------------|


                                                              
-------------------|--0------------------|-------------------|
-------------------|-----------4----2----|--0----------------|
--0----------------|---------------------|-------------------|
-------------------|---------------------|-------------------|


                                                                               
------------------|--0----------------|-------------------|--0----------------|
------------------|-------------------|--0----------------|-------------------|
------------------|-------------------|-------------------|-------------------|
------------------|-------------------|-------------------|-------------------|


                                                                                
-------------------|-------------------|-------------------|-------------------|
--0----------------|--0----------------|--0----------------|-------------------|
-------------------|-------------------|-------------------|--0----------------|
-------------------|-------------------|-------------------|-------------------|


                                                              
--------------------|--0-----------------|-------------------|
-----------------4--|--------------------|-------------------|
--0-----------------|--------------------|-------------------|
--------------------|-------3------------|--3----------------|


                                                                                
-------------------|-------------------|--0----------------|-------------------|
--0----------------|--0----------------|-------------------|-------------------|
-------------------|-------------------|-------------------|--0----------------|
-------------------|-------------------|-------------------|-------------------|


                                                                                
-------------------|--0----------------|--0----------------|--0----------------|
--4----------------|-------------------|-------------------|-------------------|
-------------------|-------------------|-------------------|-------------------|
-------------------|-------------------|-------------------|-------------------|


                                                                                
--0----------------|--2----------------|--2----------------|--2----------------|
-------------------|-------------------|-------------------|-------------------|
-------------------|-------------------|-------------------|-------------------|
-------------------|-------------------|-------------------|-------------------|


                                                                                
--2----------------|--2----------------|-------------------|-------------------|
-------------------|-------------------|--0----------------|--------------0----|
-------------------|-------------------|-------------------|-------------------|
-------------------|-------------------|-------------------|-------------------|


                                                                                
-------------------|--------------------|--0----------------|------------------|
----------0--------|----------0----0----|-------------------|------------------|
-------------------|--------------------|-------------------|------------------|
-------------------|--------------------|-------------------|------------------|


                                                            
--0----------------|------------------|--------------------|
-------------------|------------------|--0--------0--------|
-------------------|------------------|--------------------|
-------------------|------------------|--------------------|


                                                               
--------------------|--------------------|--------------------|
--0--------0--------|--0--------0--------|--0--------0--------|
--------------------|--------------------|--------------------|
--------------------|--------------------|--------------------|


                                                            
-------------------|-------------------|-------------------|
--0----------------|--0----------------|-------------------|
-------------------|-------------------|--0----------------|
-------------------|-------------------|-------------------|


                                                              
--------------------|--0-----------------|-------------------|
-----------------4--|--------------------|-------------------|
--0-----------------|--------------------|-------------------|
--------------------|-------3------------|--3----------------|


                                                                                
-------------------|-------------------|--0----------------|-------------------|
--0----------------|--0----------------|-------------------|-------------------|
-------------------|-------------------|-------------------|--0----------------|
-------------------|-------------------|-------------------|-------------------|


                                                                                
-------------------|--0----------------|--0----------------|--0----------------|
--4----------------|-------------------|-------------------|-------------------|
-------------------|-------------------|-------------------|-------------------|
-------------------|-------------------|-------------------|-------------------|


                                                                                
--0----------------|--2----------------|--2----------------|--2----------------|
-------------------|-------------------|-------------------|-------------------|
-------------------|-------------------|-------------------|-------------------|
-------------------|-------------------|-------------------|-------------------|


                                                                                
--2----------------|--2----------------|-------------------|-------------------|
-------------------|-------------------|--0----------------|--------------0----|
-------------------|-------------------|-------------------|-------------------|
-------------------|-------------------|-------------------|-------------------|


                                                                                
-------------------|--------------------|--0----------------|------------------|
----------0--------|----------0----0----|-------------------|------------------|
-------------------|--------------------|-------------------|------------------|
-------------------|--------------------|-------------------|------------------|


                                                             
--0----------------|------------------|---------------------|
-------------------|------------------|--0-------------0----|
-------------------|------------------|---------0-----------|
-------------------|------------------|---------------------|


                                                                  
---------------------|---------------------|---------------------|
-----------0---------|---------------------|---------------------|
----0-----------0----|---------2-----------|----2-----------0----|
---------------------|--3-------------3----|-----------3---------|


                                                                  
---------------------|---------------------|---------------------|
---------------------|---------------------|--0-------------0----|
---------2-----------|----2-----------0----|---------0-----------|
--3-------------3----|-----------3---------|---------------------|


                                                                  
---------------------|---------------------|---------------------|
-----------0---------|--0-------------0----|-----------0---------|
----0-----------0----|---------0-----------|----0-----------0----|
---------------------|---------------------|---------------------|


                                                                  
---------------------|---------------------|---------------------|
---------------------|---------------------|---------------------|
---------2-----------|----2-----------0----|---------2-----------|
--3-------------3----|-----------3---------|--3-------------3----|


                                                                
---------------------|--------------------|--------------------|
---------------------|--------------------|--------------------|
----2-----------0----|--------0------0----|----0------0--------|
-----------3---------|--------------------|--------------------|


                                                                 
---------------------|---------------------|--------------------|
---------------------|---------------------|--0--------0--------|
--0------0------0----|----0------0----2----|--------------------|
---------------------|---------------------|--------------------|


                                                               
--------------------|--------------------|--------------------|
--0--------0--------|--------------------|--------------------|
--------------------|--3--------3--------|--3--------3--------|
--------------------|--------------------|--------------------|


                                                               
--------------------|--------------------|--------------------|
--------------------|--------------------|--------------------|
--2--------2--------|--2--------2--------|--0--------0--------|
--------------------|--------------------|--------------------|


                                                               
--------------------|--------------------|--------------------|
--------------------|--0--------0--------|--0--------0--------|
--0--------0--------|--------------------|--------------------|
--------------------|--------------------|--------------------|


                                                               
--------------------|--------------------|--------------------|
--------------------|--------------------|--------------------|
--3--------3--------|--3--------3--------|--2--------2--------|
--------------------|--------------------|--------------------|


                                                               
--------------------|--------------------|--------------------|
--------------------|--------------------|--------------------|
--2--------2--------|--0--------0--------|--0--------0--------|
--------------------|--------------------|--------------------|


                                                                   
--0------------------|----------------------|---------------------|
-----------4----2----|--0-------------------|-----------------0---|
---------------------|-----------------0-2--|--3------------3-----|
---------------------|---------------2------|---------------------|


                                                                 
---------------------|-------------------|----------------------|
---------------------|-------------------|--0-------------------|
--2------------2-3---|--0----------------|-----------------0-2--|
---------------------|-------------------|---------------2------|


                                                                
---------------------|---------------------|-------------------|
-----------------0---|---------------------|-------------------|
--3------------3-----|--2------------2-3---|--0----------------|
---------------------|---------------------|-------------------|


                                                                    
--0------0------------|----------------------|---------------------|
------------4----2----|--0-------------------|-----------------0---|
----------------------|-----------------0-2--|--3------------3-----|
----------------------|---------------2------|---------------------|


                                                                 
---------------------|-------------------|----------------------|
---------------------|-------------------|--0-------------------|
--2------------2-3---|--0----------------|-----------------0-2--|
---------------------|-------------------|---------------2------|


                                                              
--------------------|--------------------|-------------------|
---------------0----|--------------------|-------------------|
--3-----------------|--2------------3----|--0----------------|
--------------------|--------------------|-------------------|


                                                                                
--0----------------|-------------------|-------------------|--0----------------|
-------------------|-------------------|--4----------------|-------------------|
-------------------|--0----------------|-------------------|-------------------|
-------------------|-------------------|-------------------|-------------------|


                                                                                
--0----------------|--0----------------|--0----------------|--2----------------|
-------------------|-------------------|-------------------|-------------------|
-------------------|-------------------|-------------------|-------------------|
-------------------|-------------------|-------------------|-------------------|


                                                                                
--2----------------|--2----------------|--2----------------|--2----------------|
-------------------|-------------------|-------------------|-------------------|
-------------------|-------------------|-------------------|-------------------|
-------------------|-------------------|-------------------|-------------------|


                                                            
-------------------|-------------------|-------------------|
--0----------------|--------------0----|----------0--------|
-------------------|-------------------|-------------------|
-------------------|-------------------|-------------------|


                                                                                
--------------------|--0----------------|------------------|--0----------------|
----------0----0----|-------------------|------------------|-------------------|
--------------------|-------------------|------------------|-------------------|
--------------------|-------------------|------------------|-------------------|


                                                               
------------------|---------------------|---------------------|
------------------|--0-------------0----|-----------0---------|
------------------|---------0-----------|----0-----------0----|
------------------|---------------------|---------------------|


                                                                  
---------------------|---------------------|---------------------|
---------------------|---------------------|---------------------|
---------2-----------|----2-----------0----|---------2-----------|
--3-------------3----|-----------3---------|--3-------------3----|


                                                                  
---------------------|---------------------|---------------------|
---------------------|---------------------|---------------------|
----2-----------0----|--0------0------0----|----0------0----0----|
-----------3---------|---------------------|---------------------|


                                                                  
---------------------|---------------------|---------------------|
--2------2------2----|----2------2----2----|--0-------------0----|
---------------------|---------------------|---------0-----------|
---------------------|---------------------|---------------------|


                                                                  
---------------------|---------------------|---------------------|
-----------0---------|---------------------|---------------------|
----0-----------0----|---------2-----------|----2-----------0----|
---------------------|--3-------------3----|-----------3---------|


                                                                  
---------------------|---------------------|---------------------|
---------------------|---------------------|---------------------|
---------2-----------|----2-----------0----|--0------0------0----|
--3-------------3----|-----------3---------|---------------------|


                                                                  
---------------------|---------------------|---------------------|
---------------------|---------------------|---------------------|
----0------0--0------|--0------0------0----|----0------0--0------|
---------------------|---------------------|---------------------|


                                                                      
----------------------|----------------------|-----------------------|
--0----0----0----0----|--0----0----0----0----|--0----0----0-------0--|
----------------------|----------------------|-----------------4-----|
----------------------|----------------------|-----------------------|


                                                      
--------------------------|--------------------------|
--0-----0--0-----0--0-----|--0--0-----0--0-----0--0--|
-----4--------4--------4--|--------4--------4--------|
--------------------------|--------------------------|


                                                      
--------------------------|--------------------------|
--0--0--0-----0--0--0--0--|--0--0--0--0-----0--0--0--|
-----------4--------------|--------------4-----------|
--------------------------|--------------------------|


                                                      
--------------------------|--------------------------|
--0--0--0-----0--0--0-----|--0--0-----0--0-----0--0--|
-----------4-----------4--|--------4--------4--------|
--------------------------|--------------------------|


                                                      
--------------------------|--------------------------|
--0-----0--0--0-----0--0--|--------------------------|
-----4-----------4--------|--3--2-----2--0-----0-----|
--------------------------|--------3--------2-----3--|


                                                                         
--------------------------|----------------------|----------------------|
-----------2--3--3--2--2--|--0----0----0----0----|--0----0----0----0----|
--------------------------|----------------------|----------------------|
--1--3--1-----------------|----------------------|----------------------|


                                                                     
----------------------|----------------------|----------------------|
--0----0----0----0----|--0----0----0----0----|--0----0----0----0----|
----------------------|----------------------|----------------------|
----------------------|----------------------|----------------------|


                                                                     
----------------------|----------------------|----------------------|
--0----0----0----0----|--0----0----0----0----|--0----0----0----0----|
----------------------|----------------------|----------------------|
----------------------|----------------------|----------------------|


                                                                     
----------------------|----------------------|----------------------|
--0----0----0----0----|--0----0----0----0----|--0----0----0----0----|
----------------------|----------------------|----------------------|
----------------------|----------------------|----------------------|


                                                                     
----------------------|----------------------|----------------------|
--0----0----0----0----|--0----0----0----0----|--0----0----0----0----|
----------------------|----------------------|----------------------|
----------------------|----------------------|----------------------|


                                                                     
----------------------|----------------------|----------------------|
--0----0----0----0----|--0----0----0----0----|--0----0----0----0----|
----------------------|----------------------|----------------------|
----------------------|----------------------|----------------------|


                                                                     
----------------------|----------------------|----------------------|
--0----0----0----0----|--0----0----0----0----|--0----0----0----0----|
----------------------|----------------------|----------------------|
----------------------|----------------------|----------------------|


                                                                     
----------------------|----------------------|----------------------|
--0----0----0----0----|--0----0----0----0----|--0----0----0----0----|
----------------------|----------------------|----------------------|
----------------------|----------------------|----------------------|


                                                                     
----------------------|----------------------|----------------------|
--0----0----0----0----|--0----0----0----0----|--0----0----0----0----|
----------------------|----------------------|----------------------|
----------------------|----------------------|----------------------|


                                                                     
----------------------|----------------------|----------------------|
--0----0----0----0----|--0----0----0----0----|--0----0----0----0----|
----------------------|----------------------|----------------------|
----------------------|----------------------|----------------------|


                                                                                
----------------------|------------------|------------------|------------------|
--0----0----0----0----|------------------|------------------|------------------|
----------------------|------------------|------------------|------------------|
----------------------|------------------|------------------|------------------|


                                                                            
------------------|------------------|------------------|------------------|
------------------|------------------|------------------|------------------|
------------------|------------------|------------------|------------------|
------------------|------------------|------------------|------------------|


_______________________________________________________
Contribuição: luiz eduardo saragozo de freitas(luizeduardosf@bol.com.br)

Comentários 0

Composição: Flying Blind / Santacruz
Esse não é o compositor? Avise-nos.
Consegui tocarAinda não conseguiram tocar essa música. Seja o primeiro!
    Não consegui tocar
    1. Domingo de Manhã - Marcos e Belutti Manteve-se 100.564 exibições
    2. Maus Bocados - Cristiano Araújo Manteve-se 44.110 exibições
    3. Recaídas - Henrique e Juliano Manteve-se 41.555 exibições
    4. Logo Eu - Jorge e Mateus Manteve-se 40.930 exibições
    5. Pra Você - Onze:20 Manteve-se 37.540 exibições
    6. Não Vai Voltar - Onze:20 Manteve-se 31.765 exibições
    7. Mulher - Projota Manteve-se 30.992 exibições
    8. Só Os Loucos Sabem - Charlie Brown Jr. Manteve-se 30.145 exibições
    9. Calma - Jorge e Mateus Manteve-se 26.500 exibições
    10. Pais e Filhos - Legião Urbana Manteve-se 25.915 exibições
    1. Jorge e Mateus- Manteve-se 276.847 exibições
    2. Legião Urbana- Manteve-se 207.235 exibições
    3. Charlie Brown Jr.- Manteve-se 146.346 exibições
    4. Marcos e Belutti- Manteve-se 124.646 exibições
    5. Fernandinho- Manteve-se 118.123 exibições
    6. Henrique e Juliano- Manteve-se 105.885 exibições
    7. Bruno e Marrone- Manteve-se 100.989 exibições
    8. Luan Santana- Manteve-se 91.274 exibições
    9. Onze:20- Manteve-se 90.389 exibições
    10. Thalles Roberto- Manteve-se 89.499 exibições

    Cifras e tabs

    Fórum Cifra Club

    Aprenda

    Cifra Club News

    Mais Serviços Cifra Club ID

    Studio Sol

    ©1996 - 2014 Cifra Club · o primeiro, maior e mais acessado do Brasil · 335 mil músicas · 6.1 milhões pessoas cadastradas

    publicidade
    fechar