Knockin' On Heaven's Door

Guns N' Roses

 Guns N' Roses
Afinação: Tune down a 1/2 step to Gb Db Ab Eb

Intro:

Gb|-------|------------------------------------|------------------------|
Db|-------|------------------------------------|----------------------5-|
Ab|-------|------2-3-5--0-3--3--0-3-0-3--3-0-5-|------2-3-5--0-3--0-3---|
Eb|-0-1-2-|-3--3-------------------------------|-3--3-------------------|

1st Verse:

Gb|------------------------------|-------------------------------|
Db|------------------------------|-------------------------------|
Ab|--------5-----------------3-2-|----2-3-5--3--0-3-0-3--3-0-5-2-|
Eb|-9/--3-----5--5-5--5--5-3-----|-3-----------------------------|

Gb|----------------2-|------------------------------------|
Db|------------------|------------------------------2-4-5-|
Ab|----5-------2-3---|----2-3-5--0-3--333--333--335-------|
Eb|-3-----5--5-------|-3----------------------------------|

1st Chorus:

Gb|----------------------5-------------------|
Db|------------------------------------------|
Ab|-------2-3-5--5--0-3-----0-3-0-3--3-0-5-2-|
Eb|-3--3-------------------------------------|

Gb|-------------------------------------------|
Db|-------------------------------2-4-5-------|
Ab|-------2-3-5--5--0-3--3--033-5-------0-3-2-|
Eb|-3--3--------------------------------------|

Gb|------------------------------------------|
Db|--------------------------------3---------|
Ab|------2-3-5--5--0-3--3--------------------|
Eb|-3--3-------------------0000-1-----1-2222-|

Gb|----------------------------|
Db|--------------------------5-|
Ab|-------2-3-5--5--0-3--0-3---|
Eb|-3--3-----------------------|

1st Solo:

Gb|-----------------|-------------------|
Db|-----------------|-------------------|
Ab|----5--3--0-3--3-|----2-3-5--3--3333-|
Eb|-3---------------|-3-----------------|

Gb|----------------------|----------------------------|
Db|----------------------|--------------2-----5-2-----|
Ab|----2-3-5--3----------|----2-3-5--3----5-3-----5-2-|
Eb|-3------------0-0-1-2-|-3--------------------------|

2nd Verse:

Gb|-------------2------2------------|-------------------------------|
Db|---------------------------------|-------------------------------|
Ab|----2-3-5--0----0-0---0-0-0--3-2-|----2-3-5--3--3-3-0-3--3-0-5-2-|
Eb|-3-------------------------------|-3-----------------------------|

Gb|----------------2-2--2-------|-------------------------------------|
Db|-----------------------5-2---|-------------------------------2-4-5-|
Ab|----2-3-5--0--0------------5-|----2-3-5--5--0-3--333-333-335-------|
Eb|-3---------------------------|-3-----------------------------------|

2nd Chorus:

Gb|------------------------------------------|
Db|------------------------------------------|
Ab|-------2-3-5--5--0-3--3--0-3-0-3--3-0-5-2-|
Eb|-3--3-------------------------------------|

Gb|---------------------------------------|
Db|---------------------------------------|
Ab|-------2-3-5--5--0-3--3----------------|
Eb|-3--3-------------------0000-1111-2222-|

Gb|----------------------------------------|
Db|--------------------------2-----5-2-----|
Ab|-------2-3-5--0-3--3--0-3---5-3-----5-2-|
Eb|-3--3-----------------------------------|

Gb|---------------------------------|
Db|------------------------55555555-|
Ab|-------2-3-5--5--3---------------|
Eb|-3--3---------------0-3----------|

2nd Solo:

Gb|------------------------------------------|
Db|------------------------------------------|
Ab|-------2-3-5--5--0-3--3--0-3-0-3--3-0-5-2-|
Eb|-3--3-------------------------------------|

Gb|---------------------------------------|
Db|---------------------------------------|
Ab|-------2-3-5--5--0-3--3----------------|
Eb|-3--3-------------------0000-1111-2222-|

Gb|---------------------------------------|
Db|---------------------------55555-2-----|
Ab|-------2-3-5--5--0-3--3--0---------5-2-|
Eb|-3--3----------------------------------|

Gb|----------------------------------------|
Db|----------------------------------------|
Ab|-------2-3-5--5--0-3--3--0-3-0-3--3-0-5-|
Eb|-3--3-----------------------------------|

Bridge:

Gb|---------------------------|--------------------------|
Db|---------------------------|--------------------------|
Ab|-----2--55--33--3333-------|-----2--55--33------222---|
Eb|-33------------------0-1-2-|-33-------------0-3-----3-|

Gb|-------------------------|-----------------------------------|
Db|----------------5555-----|-----------------------------------|
Ab|-----2--55--33-------3-2-|--------2--55555--33333------------|
Eb|-33----------------------|-33333-------------------00-11-020-|

Gb|---------------------------|------------------------------|
Db|---------------------------|----------------5-2---5-2-----|
Ab|-----2--55--33--3333-------|-----2--55--33------5-----5-3-|
Eb|-33------------------0-1-2-|-33---------------------------|

Gb|----------------------------------|
Db|-------------------------3--------|
Ab|-----2--55--33--3-----------------|
Eb|-33---------------0000-1---1-2222-|

Gb|-------------------------------------|
Db|-----------------2-----5-----5-2-----|
Ab|-----2--55--3333---333---333-----5-2-|
Eb|-33----------------------------------|


Gb|------------------------------|--------------------------------------|
Db|----------------2-----5-2-----|--------------------------5---5-------|
Ab|-----2--55--33----5-3-----5-2-|-----2--55--33------------------------|
Eb|-33---------------------------|-33-------------0-3-555-3---3---222-0-|

Gb|------------------------------|----------|----------------------------|
Db|----------------2-----5-2-----|----------|----------------------------|
Ab|-----2--55--33----5-3-----5-2-|-----REST-|-33333333/1313131313131313\-|
Eb|-33---------------------------|-33-------|----------------------------|

Outro:

Gb|------------------------------------------|
Db|------------------------------------------|
Ab|-------2-3-5--5--0-3--3--0-3-0-3--3-0-5-2-|
Eb|-3--3-------------------------------------|

Gb|----------------------------------------|
Db|-------------------------------3--------|
Ab|-------2-3-5--5--0-3--3-----------------|
Eb|-3--3-------------------0000-1---1-2222-|

Gb|----------------------------------------------------|
Db|---------------------5-2--------------5-2-----------|
Ab|-------2-3-5--5--0-3-----5-3-2-0-3--3-----5-3-2-0-2-|
Eb|-3--3-----------------------------------------------|

Gb|---------------------------------|--------------------------|
Db|---------------------------------|--------------------------|
Ab|-------2-3-5--5--0-3--3--0-3-3-3-|-03-03-03-----------3-2---|
Eb|-3--3----------------------------|----------0-2-0-3-0-----3-|

Comentários 0

Composição: Gurewitz / Irwin Levine / Túlio Mourão
Esse não é o compositor? Avise-nos.
publicidade
fechar