November Rain

Guns N' Roses

 Guns N' Roses
Gb------------------------I
Db-3----2--0--------------I
Ab--------------3------3--I
Eb-------------------3----I  (x 2)

Gb-----------0-0-0-0-0---------------------I
Db-0-0-0-0-0-------------------------------I
Ab---------------------3-3-3-3-3-3-3-3-3-3-I
Eb-----------------------------------------I

Gb------------------------------------------I
Db-0-0-0-0-0--------------------------------I
Ab----------------------3-3-3-3-3-3-3-3-3-3-I
Eb------------3-3-3-3-3---------------------I
  
Gb------------------------I
Db-3----2--0--------------I
Ab--------------3------3--I
Eb-------------------3----I

Gb------------------------------------------I
Db-0-0-0-0-0--------------------------------I
Ab----------------------3-3-3-3-3-3-3-3-3-3-I
Eb------------3-3-3-3-3---------------------I
Guitar Only Bit

Gb--------------------------------------I(You know it's hard..
Db-2-2--3-3-----------2-2--3-3--0-0-0-0-I
Ab-----------3-3-3-3--------------------I
Eb--------------------------------------I

Gb------------------------------0-0-0-0-0-0-0-0-I
Db-2-2--3-3-----------2-2--3-3------------------I
Ab-----------3-3-3-3----------------------------I
Eb----------------------------------------------I

Gb-------------------------------------------I
Db-3-3-3-3--2---0-0-0-0----------------------I
Ab-----------------------3-3-3-3-3-3-3-3-3-3-I
Eb-------------------------------------------I(2x)

Gb------------0-0-0-0-0----------------------I
Db-0-0-0-0-0---------------------------------I
Ab-------------------------------------------I
Eb-----------------------3-3-3-3-3-3-3-3-3-3-I(2x)

Gb------------------------------0-0-0-0-0-0-0-0-I
Db-2-2--3-3-----------2-2--3-3------------------I
Ab-----------3-3-3-3----------------------------I
Eb----------------------------------------------I

Gb-------------------------------------------I
Db-3-3-3-3--2---0-0-0-0----------------------I
Ab-----------------------3-3-3-3-3-3-3-3-3-3-I
Eb-------------------------------------------I(2x)

Gb------------0-0-0-0-0----------------------I
Db-0-0-0-0-0---------------------------------I
Ab-------------------------------------------I
Eb-----------------------3-3-3-3-3-3-3-3-3-3-I(2x)

Guitar Only Bit
Gb-0-0-0-0-0-0-0-0-0-0-0-0-0-0-0-0--I
Db----------------------------------I
Ab----------------------------------I
Eb----------------------------------I
  
Gb-------------------------------------------I
Db-3-3-3-3--2---0-0-0-0----------------------I
Ab-----------------------3-3-3-3-3-3-3-3-3-3-I
Eb-------------------------------------------I(x 2)
Gb------------------------I
Db-3----2--0--------------I
Ab--------------3------3--I
Eb-------------------3----I(x 2)

Gb--------0--0-------------------I
Db--0--0-------------------0--0--I
Ab---------------3------3--------I
Eb-------------------3-----------I
 
Gb-5-5--4-4--2-2--0-0-----------0-0-0-0-0-0-0-0--I
Db--------------------3-3-3-3-3------------------I
Ab-----------------------------------------------I
Eb-----------------------------------------------I(2x)

Gb-5----5-5--3--5-5--1-1--3-3-3-3-3--I
Db-----------------------------------I
Ab-----------------------------------I
Eb-----------------------------------I

Gb-5-5--3--5-5---1-1--3-3-3-3-3-I
Db------------------------------I
Ab------------------------------I
Eb------------------------------I(2x)

Gb-5-5-5--0-0-0----------------1-1-1--3-3-3---5-5-5-5-5-5-5-5-5-5-5-5-5-5-5-I
Db---------------3-3-3--1-1-1-----------------------------------------------I
Ab--------------------------------------------------------------------------I
Eb--------------------------------------------------------------------------I

Gb-0-0-0----------------1-1-1--3-3-3--5-5-5-5-5-5-5-5-5-5-5-5-5-5-5-I
Db--------3-3-3--1-1-1----------------------------------------------I
Ab------------------------------------------------------------------I
Eb------------------------------------------------------------------I(4x)

Gb-0-0-0----------------1-1-1--3-3-3--5--I
Db--------3-3-3--1-1-1-------------------I
Ab---------------------------------------I
Eb---------------------------------------I

Comentários 2

  • lucas lucas: Postado em 24/12/2013 15:14

    tudo errada cara.

  • mr.mendes mr.mendes: Postado em 22/10/2012 18:13

    cara eu toco ela na guitarra, mas quero tbm no contra-baixo, alguem sabe ai o tempo certinho dele, to perdido so nos tempos !!

Composição: Flying Blind / Santacruz
Esse não é o compositor? Avise-nos.
Contribuição: Douglas Simmons
publicidade
fechar