You Could Be Mine

Guns N' Roses

 Guns N' Roses
Tom: G
		
               transcription:

fb: full bend                  hb: half bend 
 ~: tremolo pickin (b,r,b,r...) r: release bend  
 h: hammer on                   p: pull off 
 ^: intense tremolo pickin     (\)or(/): slide



Intro ( Guitars 1 & 2) 1x
  
   Riff 1: 2x  

e|----------------14~~---------------------| 
B|---16hbr16p14---14~~---14hbr14p12---12~~-|
G|---16hbr16p14---14~~---14hbr14p12---12~~-|
D|--------------16------------------14-----|
A|-----------------------------------------|
E|-----------------------------------------|


 Riff 2:  2x

e|----------------------|
B|-x-16hbrp14-----14~~~-|
G|-x-16hbrp14-----14~~~-|
D|--------------16------| 2x
A|----------------------|
E|----------------------|

                                          

e|----------------------|
B|-x-14hbrp12-----12~~~-|
G|-x-14hbrp12-----12~~~-|
D|--------------14------| 2x
A|----------------------|
E|----------------------|

      
 Riff 3: 1x                   

e|------------------------|
B|----12hb~--12hb~--12hb~-|
G|----12hb~--12hb~--12hb~-|
D|---14-----14----14------| 
A|------------------------|
E|------------------------|

             

                           Intro solo: 
Guitar 1:

   F#5      G5      A5      B5    ( guitar 2 make the back rithm) 
e|-----------------------------------------|
B|-----------------------------------------|
G|--/9~~~--/13~~~--/14~~~-/16~~~--/16fb~~~-|
D|-----------------------------------------|
A|-----------------------------------------|
E|-----------------------------------------|

\\\\\\\\\\\\\\\\\\\\\\\\\\\\\\\\\\\\\\\\\\\\\\
Guitar 2: verse riff 1x
                 record version
Guitar 1: ( when the guitar 2 is playing the "E" part off verse)

e|-------------------------------------------------------------|
B|-5fb~(5)^^^--4fb-5fbr333h5p3---------5p33----5-2-4-2-4-2-----|
G|---------------5hb~----------4fb4h5p4-----5hb~~2-4-2-4-2-4-2-|
D|---------------------------------------------------------4-2-|
A|-------------------------------------------------------------|
E|-------------------------------------------------------------| 

                                                    ...I'm a cold heart...
                                    
obs: listen this part of music, is not to hard to play, the difficult is just to listen
and understand what the experienced master Slash plays,and maybe is not 100% right, 
but is something like that...
       
        Verse Riff: (2x)

    F#5                                                                    
e|---------------|---------------|
B|---------7-7---|--2-4-2-4-2----|
G|-------x-6-6---|--2-4-2-4-2-4-2|
D|--4--4-x-4-4---|------------4-2| 2x
A|--4--4-x-------|---------------|
E|--2--2---------|---------------|


    E
e|---------------|---------------|
B|-----------5-5-|--2-4-2-4-2----|
G|--------x--4-4-|--2-4-2-4-2-4-2|
D|--2--2--x--2-2-|------------4-2| 1x
A|--2--2--x------|---------------|
E|--0--0---------|---------------|


    F#5
e|---------------|---------------|
B|---------7-7---|--2-4-2-4-2----|
G|-------x-6-6---|--2-4-2-4-2-4-2|
D|--4--4-x-4-4---|------------4-2| 1x
A|--4--4-x-------|---------------|
E|--2--2---------|---------------|


                         Chorus: 

   A5  B5     F#5    
e|-------------------|
B|-------------------|
G|-------------------|
D|-7---9---------4---| 
A|-7---9---------4---|
E|-5---7---------2---|

   You could be mi-ine 

        A5  B5    F#5 C#5
e|-----------------------|
B|-----------------------|
G|-----------------------|
D|----------7---9-----4--| 
A|----------7---9-----4--|
E|----------5---7-----2--|                                                   

  But your way was out off li-ine

            A5                          B5
e|--------------------------------------------------|
B|--------------------------------------------------|
G|--------------------------------------------------|
D|----------7---------------------------9-----------| 
A|----------7---------------------------9-----------|
E|----------5---------------------------7-----------|  

 With your bitch slap rappin' And your cocaine tongue

         A5  G5   F#5
e|-------------------|
B|-------------------|
G|-------------------|
D|-------7---5----4--| 
A|-------7---5----4--|
E|-------5---3----2--|  

You get nu--thin' done

       A5  B5       F#5 
e|---------------------|
B|---------------------|
G|---------------------|
D|-----7---9--------4--| 
A|-----7---9--------4--|
E|-----5---7--------2--|  

I said you could be mine
//////////////////////////////////////////
Guitar 2: Verse Riff 1x 
Guitar 1: Solo 1 
               
      Solo 1:In the "E" part of verse riff

e|----------------------------14-------17fb|
B|-17fb~~~~~---17p14--17~-------17p14------|
G|------------------14---------------------|
D|-----------------------------------------|
A|-----------------------------------------|
E|-----------------------------------------|

     

e|14------16b(16)r--1614-----------------|
B|--17p14---------------1714h17p14-------|
G|--------------------------------16-----|
D|----------------------------------16~~-|
A|---------------------------------------|
E|---------------------------------------|

  
Verse Riff: Guitar 1 & 2 2x      

         Chorus 2:

e|-----------------------|
B|-----------------------|
G|-----------------------|
D|----------7---9-----4--| 
A|----------7---9-----4--|
E|----------5---7-----2--|                                                   

  But your way was out off li-ine

            A5                          B5
e|--------------------------------------------------|
B|--------------------------------------------------|
G|--------------------------------------------------|
D|----------7---------------------------9-----------| 
A|----------7---------------------------9-----------|
E|----------5---------------------------7-----------|  

 With your bitch slap rappin' And your cocaine tongue

         A5  G5   F#5
e|-------------------|
B|-------------------|
G|-------------------|
D|-------7---5----4--| 
A|-------7---5----4--|
E|-------5---3----2--|  

You get nu--thin' done

       A5  B5         C#5 
e|-----------------------|
B|-----------------------|
G|--------------------6--|
D|-----7---9----------6--| 
A|-----7---9----------4--|
E|-----5---7-------------|  

I said you could be mi---ne
\\\\\\\\\\\\\\\\\\\\\\\\\\\\\\\\\\
Intro ( Guitars 1 & 2) 1x

Bridge 1:


    G5          F#5       G5       D5    C#5  A5   
e|-----------------------------------------------| 
B|-----------------------------------------------|
G|---------------------------------------6-6-----|
D|---5----------4---------5--------7-----6-6--7--| 
A|---5----------4---------5--------7-----4-4--7--|
E|---3----------2---------3--------5----------5--|

  ...You've gone sketchin' too many times...


    G5          F#5       G5       D5    C#5  A5   
e|-----------------------------------------------| 
B|-----------------------------------------------|
G|---------------------------------------6-6-----|
D|---5----------4---------5--------7-----6-6--7--| 
A|---5----------4---------5--------7-----4-4--7--|
E|---3----------2---------3--------5----------5--|

  ...uhhh! Why don't ya give it a rest...


e|-------------------------------------| 
B|-------------------------------------|
G|-------------------------------------|
D|---5------4---5--------9-----7--5--4-| 
A|---5------4---5--------9-----7--5--4-|
E|---3------2---3--------7-----5--3--2-|

  ...Why~~~~~~ must to fi~~~~~~~~~~~~nd...
\\\\\\\\\\\\\\\\\\\\\\\\\\\\\\\\\\\\\\\\\\\\\\\\\\\\\\\\\\\\\\\\\\\\\
 Guitar 2 - back rithm   
 Guitar 1 - solo 2
               
                    Solo 2

                        B5                  D5 B5   
e|---------------------------------------------------------|
B|---------------------------7hb7----10fb-79p7-9hb~-9p7-7^-|
G|----------------x7~~~7hb---7hb9fb--9fb--79p7-9hb~79p7-7^-|
D|----------------x7~~~7hb--------------------9--------9---|
A|---------------------------------------------------------|
E|---------------------------------------------------------|

..A couple off reason to cry

    D5 B5                      D5 A5                D5 B5               
e|---------------------------------------------------------------------------------|
B|7-9hb--7----9------7^------------------------------------------------------------|
G|7-9hb--79p7-9-79p7-7^---77h8p7p6-6-76h7p6-6~--67-6~-------------9hb9hb-----------|
D|-----------9------9----9----------9------7---7--7---7---9^9^7h9p79hb9hb----------|
A|-----------------------------------------------------9fb-----------------567~----|
E|------------------------------------------------------------------------7----7~7~|


         D5 B5                            D5 B5                        
e|-------------------12hb~~-------------12hb~~108h10p8p7--8h10p8h10p8----10h12p10--15fb~|
B|--12^^^12h13p12p10-------12h13p12p10------------------10-----------8/12--------12-----|
G|------------------12----------------12------------------------------------------------|
D|(9)-----------------------------------------------------------------------------------|
A|--------------------------------------------------------------------------------------|
E|--------------------------------------------------------------------------------------|


        D5 A5
e|12p10--10~~-10h12p10--15fb~~-12p10--10~~-10h12p10--15fb~~|
B|-----12-------------12------------12-------------12------|
G|---------------------------------------------------------|
D|---------------------------------------------------------|
A|---------------------------------------------------------|
E|---------------------------------------------------------|


                                            D5 B5    
e|12p10--10~~-10h12p10--15fb--15fb~~--12p10--17fb(17)fb^^^-|
B|-----12-------------12----12-------------12--------------|
G|---------------------------------------------------------|
D|---------------------------------------------------------|
A|---------------------------------------------------------|
E|---------------------------------------------------------| 

   

e|17-----------------------------------|
B|---17fb--17-15-----------------------|
G|---------------16-14-----------------|
D|---------------------16-14-----------|
A|---------------------------17-14~~~--|
E|-------------------------------------|  


Bridge 2:
 B5
While you're breakin' down my back n'
       C5
I been rackin' out my brain
         D5     
It don't matter how we make it

              <---------------------- B|---9r~~~~~~~~~~~fb----|

'Cause it always ends the same
        B5
You can push it for more mileage
    C5
But your flaps r' wearin' thin
      D5                          
And I could sleep on it 'til morin'
                             D5 C5
But this nightmare never ends
B5
Don't forget to call my lawyers
     C5
With ridiculous demands
           D5
Na you can take the pity so far

                          <--------------- e|----12~~~~~~~~--------|

But it's more than I can stand
           B5
Cause this couchtrip's gettin' older
        C5
Tell me how long has it been
       D5
'Cause 5 years is forever

Na you haven't grown up yet


                         Chorus 3: 

   A5  B5     F#5    
e|-------------------|
B|-------------------|
G|-------------------|
D|-7---9---------4---| 
A|-7---9---------4---|
E|-5---7---------2---|

   You could be mi-ine 

        A5  B5    F#5 C#5
e|-----------------------|
B|-----------------------|
G|-----------------------|
D|----------7---9-----4--| 
A|----------7---9-----4--|
E|----------5---7-----2--|                                                   

  But your way was out off li-ine

            A5                          B5
e|--------------------------------------------------|
B|--------------------------------------------------|
G|--------------------------------------------------|
D|----------7---------------------------9-----------| 
A|----------7---------------------------9-----------|
E|----------5---------------------------7-----------|  

 With your bitch slap rappin' And your cocaine tongue

         A5  G5   F#5
e|-------------------|
B|-------------------|
G|-------------------|
D|-------7---5----4--| 
A|-------------------|
E|-------5---3----2--|  

You get nu--thin' done
_______A5__B5_________________________________       

e|----------------|                           |
B|----------------|                           |
G|----------------|                           |
D|-----7---9------|                           | 
A|-----7---9------|                           |
E|-----5---7------|                           |  
I said you could be...                        |    
                                              |
e|---------------|                            | 
B|---------------|                            |--->guitar 1 keep doing this riff,  
G|---------------|                            |    while guitar 2 play chorus,
D|---7---9-------|                            |       Play it as guitar 1: 
A|---7---9-------|                            | G|-10~~~(10)~~~(10)~~~(10)~~~(10)~~~...| 
E|---5---7-------|                            |   
  ...you should be...                         |     
                                              | 
e|---------------|                            | 
B|---------------|                            | 
G|---------------|                            | 
D|---7---9-------|                            |  
A|---7---9-------|                            |  
E|---5---7-------|                            | 

__...you could be...__________________________| 

Final riff
 

e|-----------------------------------------------|
B|--14-16-14-16-14-------------------------------|
G|--14-16-14-16-14-16-14-16--14~~--14h16---------|
D|-----------------16-14-16--14~~--14----16^16^^-| 4x
A|-----------------------------------------------|
E|-----------------------------------------------|

  You could be mine



e|--------------------------17fbrfbr------|
B|--17fb-17fb-15h17---15fb-----------17-15|
G|----------------------------------------|
D|----------------------------------------| 3x
A|----------------------------------------|
E|----------------------------------------|  

 You could be mi-ine,  You could be mine


e|--------------------------------------|
B|--------------------------------------|
G|--------------------------------------|
D|--------------------------------------| 1x
A|-12-14-12-14-12-----------------------|
E|----------------14-12-14~~~-------14/2| 

                                    you could be mi~~~~~~~~~~~~ne. Yeah!
 Any error, please, contact me in my e-mail TheLizzard_Hendrix@hotmail.com.
Texto Colunas
Alterar tom ½ tom ½ tom
afinação acordes na letra esconder tabs mais »

Comentários (19)

  • lukewilkshire.lukwill lukewilkshire.lukwill: Postado em 21/04/2014 - 17:22

    Muito foda essa música, uma das melhores do Guns. Tem vídeo-aula no TV Cifras, e lá tá certinha

  • henrikiguns henrikiguns: Postado em 12/06/2013 17:14

    essa musica é facil de aprender, mas as video aulas são boas por mostrar tbm os efeitos a serem usados

  • Vinicius Vinicius: Postado em 10/04/2013 21:46

    Izzy gênio

  • rafael_zete rafael_zete: Postado em 10/03/2013 19:30

    Video aula aquiiiiii plx

  • guilherme.dagaveaoliveira guilherme.dagaveaoliveira: Postado em 29/01/2013 13:47

    vídeo-aula por favor Cifra Club.

  • dudu_go dudu_go: Postado em 22/09/2012 13:15

    ow podia fazer uma aula pra gente.

  • lucass10 lucass10: Postado em 19/05/2012 21:18

    pra q aula é facilllllll

  • Parolis Parolis: Postado em 19/05/2012 10:42

    música mt fera, não tem como fazer uma aula pra gente????

  • marceguitarsolo marceguitarsolo: Postado em 09/05/2012 14:40

    faci essa hein

  • marceguitarsolo marceguitarsolo: Postado em 09/05/2012 14:35

    parece q nao PENSAM ne

Exibindo 10 de 19 comentários Mostrar mais ver todos »
Composição: Flying Blind / George O&#039;Dowd / Merle Kilgore / Santacruz
Esse não é o compositor? Avise-nos.
Contribuição: Iguana Correções: Iguana »
  1. Tudo Que Você Quiser - Luan Santana Manteve-se 6.028 exibições
  2. Lepo Lepo - Psirico Manteve-se 4.297 exibições
  3. Pra Você - Onze:20 Manteve-se 4.147 exibições
  4. Mozão - Lucas Lucco Manteve-se 4.130 exibições
  5. Logo Eu - Jorge e Mateus Manteve-se 3.983 exibições
  6. Gaveta - Fernando e Sorocaba Manteve-se 3.779 exibições
  7. Só Os Loucos Sabem - Charlie Brown Jr. Manteve-se 3.131 exibições
  8. Tempo Perdido - Legião Urbana Manteve-se 2.706 exibições
  9. Fui Fiel - Gusttavo Lima Manteve-se 2.673 exibições
  10. Domingo de Manha - Marcos e Belutti Manteve-se 2.465 exibições
  1. Jorge e Mateus- Manteve-se 23.782 exibições
  2. Legião Urbana- Manteve-se 21.512 exibições
  3. Charlie Brown Jr.- Manteve-se 17.212 exibições
  4. Luan Santana- Manteve-se 17.149 exibições
  5. Fernandinho- Manteve-se 15.105 exibições
  6. Thalles Roberto- Manteve-se 11.065 exibições
  7. Católicas- Manteve-se 10.946 exibições
  8. Gusttavo Lima- Manteve-se 10.939 exibições
  9. Victor e Leo- Manteve-se 10.661 exibições
  10. Bruno e Marrone- Manteve-se 10.324 exibições
Exibir acordes »

Cifras e tabs

Fórum Cifra Club

Aprenda

Cifra Club News

Mais Serviços Cifra Club ID

Studio Sol

©1996 - 2014 Cifra Club · o primeiro, maior e mais acessado do Brasil · 329 mil músicas · 6.0 milhões pessoas cadastradas

publicidade
fechar