Fui Fiel

Gusttavo Lima

 Gusttavo Lima
Tom: E
		
Solo Introdução:


         E     B         F#m        A
E|-----7----------------------4/5-4-5-7--------|
B|7/9---7-9-7-----7-9-7------------------------|
G|-------------9-6-------9-6-------------------|
D|---------------------------------------------|
A|---------------------------------------------|
E|---------------------------------------------|




          E     B         F#m          A
E|-----7----------------------------|
B|-7/9---7-9-7-----7-9-7-----4/5----|
G|-------------9-6-------9-6--------|
D|----------------------------------|
A|----------------------------------|
E|----------------------------------|


E
Foi bonito, foi
B9            F#m
Foi intenso, foi verdadeiro
A
Mas sincero
E              B9
Sei que fui capaz
           F#m
Fiz até demais
     A
Te quis do teu jeito
E       B9
Te amei, te mostrei
F#m                   A
Que o meu amor foi o mais profundo
E        B9
Me doei, me entreguei
     F#m      A
Fui fiel! Chorei, chorei...


 REFRÃO

 E                          B9
Hoje eu acordei, me veio a falta de você
    F#m              A
Saudade de você, saudade de você
     E                         B9
Lembrei que me acordava de manhã só pra dizer:
      F#m
 Bom dia, meu bebê!
   A
Te amo, meu bebê! (x2)


        E     B         F#m        A
E|-----7----------------------4/5-4-5-7--------|
B|7/9---7-9-7-----7-9-7------------------------|
G|-------------9-6-------9-6-------------------|
D|---------------------------------------------|
A|---------------------------------------------|
E|---------------------------------------------|



          E     B         F#m          A
E|-----7----------------------------|
B|-7/9---7-9-7-----7-9-7------------|
G|-------------9-6-------9-6--8/9---|
D|----------------------------------|
A|----------------------------------|
E|----------------------------------|


E
Foi bonito, foi
B9            F#m
Foi intenso, foi verdadeiro
A
Mas sincero
E              B9
Sei que fui capaz
           F#m
Fiz até demais
     A
Te quis do teu jeito
E       B9
Te amei, te mostrei
F#m                   A
Que o meu amor foi o mais profundo
E        B9
Me doei, me entreguei
     F#m      A
Fui fiel! Chorei, chorei...

E                          B9
Hoje eu acordei, me veio a falta de você
    F#m              A
Saudade de você, saudade de você
     E                         B9
Lembrei que me acordava de manhã só pra dizer:
      F#m
 Bom dia, meu bebê!
   A
Te amo, meu bebê!

E                          B9
Hoje eu acordei, me veio a falta de você
    F#m              A
Saudade de você, saudade de você
     E                         B9
Lembrei que me acordava de manhã só pra dizer:
      F#m
 Bom dia, meu bebê!
   A
Te amo, meu bebê!

Comentários 2

  • alex alex: Postado em 21/02/2014 18:15

    O SOLO BATE SIM ..ESCUTE ELA MAIS VEZES

  • Leticia Leticia: Postado em 15/02/2014 19:37

    solo facil, mas nao entendi o final dela, nao bate com a da musica...

Composição: Pablo / Magno Santanna / Felipe Escandurras / Fabio O’Brian ·
Esse não é o compositor? Avise-nos.
Contribuição: juliernieguns Correções: mailson.reisbatista.7 , Igor e mais 3 »
Exibir acordes »
publicidade
fechar