Saudade

Gusttavo Lima

 Gusttavo Lima
Tom: C
		
(intro) C   G   Dm   F


E|----------------------------------|
B|---4/5--------8-------------------|
G|----------------5-----------------|
D|---------------------5-5/7--------|
A|----------------------------------|
E|----------------------------------|


(solo 1)

E|--15-12---------15-12---------------12--------12--------12--------|
B|--------14/15---------12/13------13----15--13----15--13----12/13--|
G|------------------------------------------------------------------|
D|------------------------------------------------------------------|
A|------------------------------------------------------------------|
E|------------------------------------------------------------------|


(solo 2)

E|------------------------------------------------------------------|
B|--8-8-8-8---------8-8-8-8-----------------------------------------|
G|----------10-9-7----------10-9-5/7-5----7/9-7-5-7/9-7-5-7/9-5-----|
D|------------------------------------------------------------------|
A|------------------------------------------------------------------|
E|------------------------------------------------------------------|


(parte 1)
C           G
Acreditei, demais
        Dm                 F
Apostei tudo nesse nosso amor
C                 G
Eu me entreguei, demais
        Dm                 F
Com a pureza de um beija-flor

C               G                Dm
Quero te encontrar, onde voce está?
               F               C
Você foi e levou minha felicidade
         G                    Dm
Meu coração se recusa a esquecer
                 F                C
E a noite, eu choro de tanta saudade

(refrão)
   G
Uôuôôôô..
   Dm
Uôuôôôô..
      F                  C
Só saudade, saudade, saudade.. (4x)

(solo 1 - 2x)

E|------------------------------|
B|------------------------------|
G|----7/9-7-5-7/9-7-5-7/9-5-----|
D|------------------------------|
A|------------------------------|
E|------------------------------|


(parte 1)

(refrão)
51.363 exibições

Comentários 3

  • Nailton Nailton: Postado em 12/03/2014 16:04

    qual é o ritmo?

  • GHILHERME GHILHERME: Postado em 08/10/2011 14:41

    a música é massa

  • mynameisvinni mynameisvinni: Postado em 21/07/2011 20:38

    Apesar da pequena letra, música muito boa =) Aprovada!

Composição: Sabe quem é o compositor? Envie pra gente. Contribuição: Rafael Falci Correções: luizpedrotga »
Exibir acordes »
publicidade
fechar