A Chuva Do Consolador

Harpa Cristã

 Harpa Cristã
Tom: A
		

E|------|-----8-|-6---4-|-4---6-|--------|--------|--------|--------|-8----|
B|------|-----4-|-------|-------|--------|--------|-14--14-|-14--14-|-4----|
G|------|-------|-6---5-|-5---5-|-13--12-|-12--0--|-0------|-0---0--|------|
D|------|-----6-|-------|-----6-|-11--11-|-11--13-|-13--13-|-13--13-|-6----|
A|------|-------|-6---6-|-6-----|-13--13-|-13-----|-----11-|-13-----|------|
E|------|-----4-|-4---4-|-4---4-|-11--11-|-11--11-|-11--13-|-----11-|------|



E|-----8-|-6---4-|-4---6-|-4---3-|-3---4-|-6---6-|-8---10-|-11---|-11---|-8---8-|
B|-----4-|-------|-------|-6---4-|-4-----|-8---8-|-9---9--|-8----|-8----|-4---4-|
G|-------|-6---5-|-5---5-|-3---3-|-3---3-|-8---8-|-7------|------|------|-------|
D|-----6-|-------|-------|-------|-------|-------|-----8--|-8----|-8----|-6---6-|
A|-------|-6---6-|-6---6-|-------|-------|-------|--------|------|------|-------|
E|-----4-|-4---4-|-4---4-|-6---6-|-6---6-|-6---6-|-6---6--|-11---|-11---|-----4-|



E|-----6-|-6---4-|-----8-|-4---4-|-------|-------|-----4-|-------|-----6-|-6---4-|
B|-------|-------|-----4-|-6---6-|-----6-|-6---4-|-------|-9---8-|-------|-------|
G|-----6-|-6---5-|-------|-6---6-|-----6-|-6---5-|-----5-|-6---6-|-----6-|-6---5-|
D|-------|-----6-|-----6-|-------|-----6-|-6-----|-----6-|-8---8-|-----5-|-6---6-|
A|-----6-|-6-----|-------|-4---4-|-----4-|-------|-------|-6---6-|-----6-|-------|
E|-----4-|-4-----|-------|-------|-------|-4-----|-----4-|-------|-------|-4---4-|



E|-----8-|-8---6-|-6---8-|------|-11---|-8---8-|-----6-|-6---4-|-----8-|-4---4-|
B|-----4-|-------|-------|-11---|------|-4---4-|-------|-------|-----4-|-6---6-|
G|-------|-7---7-|-7---7-|-0----|-12---|-------|-----6-|-6---5-|-------|-6---6-|
D|-----6-|-6---6-|-6---6-|-13---|------|-6---6-|-------|-----6-|-----6-|-------|
A|-------|-------|-------|------|-13---|-------|-----6-|-6-----|-------|-4---4-|
E|-----4-|-6---6-|-6---6-|-11---|-11---|-----4-|-----4-|-4-----|-------|-------|



E|-------|-------|-------|---4--|-4---6-|-8--11--|-11--9--|-8----|---------|
B|-----6-|-6---4-|-----4-|-6-6--|-6---6-|--------|--------|------|-11---11-|
G|-----6-|-6---5-|-----5-|-6-6--|-6-----|-8--8---|-8---10-|-8----|-0----0--|
D|-----6-|-6-----|-----6-|-6----|-----6-|----10--|--------|------|-11---11-|
A|-----4-|-------|-------|-4-4--|-4---4-|-11-11--|-11--11-|-11---|---------|
E|-------|-4-----|-----4-|------|-------|--------|-8---9--|-11---|-11---11-|



E|-4----|------|
B|-1----|------|
G|-1----|------|
D|------|------|
A|------|------|
E|-4----|------|

Comentários 3

  • rafael.landim.54 rafael.landim.54: Postado em 27/02/2014 13:39

    Não sei como ler isso. :/

  • joso18 joso18: Postado em 06/10/2012 10:18

    alguem sabe como ler???

    • jefferson.andre jefferson.andre: Postado em 18/04/2013 20:45

      os numeros são as casas do violão ou guitarra

Consegui tocarAinda não conseguiram tocar essa música. Seja o primeiro!
    Não consegui tocar
    Exibir acordes »
    publicidade
    fechar