A Fonte Transbordante

Harpa Cristã

 Harpa Cristã
Tom: 
		

E|-9----9--7-10-9-7-|---------0----|-10---10-9-7-5-9-|-7------------|
B|-----------0------|-10------10---|-7----7--5-5-5-5-|-5------------|
G|-9----9--9-9--9-9-|-6------------|-----------------|--------------|
D|-7----7--6----7-6-|-7-------7----|-7----7--7-6-7-7-|-6------------|
A|-0----0--7-7--7-7-|-0------------|-----------------|-7------------|
E|------------------|---------9----|-10---10-5-7-9-5-|--------------|



E|-9----7--5-5-0-0-|-2-------5---4-2-|-0---9---10----|--------------|
B|-5-------2-2-----|-3-------3---3-3-|-2-----------9-|-10-----------|
G|------7--2-2-2-2-|-2-------2---2-2-|-2---9---9---7-|-6------------|
D|-7----6--4-4-----|---------4---2-0-|-2---7---6---9-|-7------------|
A|------7------4-4-|-5---------------|-----7---7---7-|-0------------|
E|-----------------|-----------------|---------------|--------------|



E|-0----0--9--------0--|-9-----------0-|-10---10-9-7----9--|-7------|
B|-12---12----12-10-12-|---------10----|-7----7-------10---|--------|
G|---------9--9--9-----|-9-------6-----|---------9-9--9--8-|-9------|
D|---------------------|---------7-----|-7----7--7---------|-9------|
A|-11---11-12-11-9--11-|-12------0-----|---------0-11------|-7------|
E|-12---12-12-12-12-12-|-----12------9-|-10---10---7--9--7-|--------|



E|-9----7--5-5-0-0-|-2-------5---4-2-|-0---9---10----|--------------|
B|-5-------2-2-----|-3-------3---3-3-|-2-----------9-|-10-----------|
G|------7--2-2-2-2-|-2-------2---2-2-|-2---9---9---7-|-6------------|
D|-7----6--4-4-----|---------4---2-0-|-2---7---6---9-|-7------------|
A|------8------4-4-|-5---------------|-----7---7---7-|-0------------|
E|-----------------|-----------------|---------------|--------------|

Comentários 0

Consegui tocarAinda não conseguiram tocar essa música. Seja o primeiro!
    Não consegui tocar
    Exibir acordes »
    publicidade
    fechar