Ao Fim do Culto

Harpa Cristã

 Harpa Cristã
Tom: 
		

E|-----------------|-----10---10-8-----|----------8--------|--------------------|
B|----------3--4-5-|-6---6----6-----11-|-11--10------11-8--|-10-8-10---8-----8--|
G|----------3--5-6-|-7-----------10-10-|-8---8----8--8--8--|-8----8----8--8--8--|
D|----------3----5-|-----8----8-----8--|-10--10------10-10-|-10---10---8--10----|
A|-------------8---|-8-----------12----|-8---8----12-8--8--|-8----8----8--12-12-|
E|----------6--6-6-|-6---6----6--8--10-|----------13-------|--------------13-13-|



E|-----------------|-----10---10-11-10-|-8-----------------|-10-------8--3-5-|
B|-6--------3--4-5-|-6---6----6--------|-8---8----8--10-11-|-------------4-4-|
G|-7--------3--5-6-|-7-----------10-10-|-----8----8--0--0--|-----10---8--3-5-|
D|-8--------3----5-|-----8----8--7--8--|-8---8----8--11-11-|-12--12------3-3-|
A|-------------8---|-8-----------------|-------------------|-13--13---12-----|
E|-6--------6--6-6-|-6---6----6--8--10-|-11--11---11-12-12-|-13--13---13-----|



E|-6------------|
B|-3------------|
G|-3------------|
D|--------------|
A|--------------|
E|-6------------|
1.654 exibições

Comentários 0

Consegui tocarAinda não conseguiram tocar essa música. Seja o primeiro!
    Não consegui tocar
    Exibir acordes »
    publicidade
    fechar