Avante Eu Vou

Harpa Cristã

 Harpa Cristã
Tom: 
		

E|--------------0-|-5-5-5-5-5----5-|-9--9--0--7---------|---------------0-----|
B|--------------2-|-2-2-2-2-2----2-|-------14---10---10-|-7--7--10-10-7----10-|
G|--------------2-|-2-2-2-2-2----2-|-9--9-----7-6----6--|-7--7--7--7--7-6--6--|
D|----------------|----------------|----------7-7----7--|-7--7--0--0--7----7--|
A|--------------0-|-0-0-0-0-0----0-|-12-12-12-----------|-------9--9--0----0--|
E|----------------|----------------|--------------------|-10-10---------------|



E|-7-7-7-9-7------|---------------------|-9-9-9-7---------|---------------0-----|
B|-5-5-5-5-5----5-|-10-10-10-10-10---10-|---------10---10-|-7--7--10-10-7----10-|
G|--------------6-|-6--6--6--6--6----6--|-9-9-9-7-6----6--|-7--7--7--7--7-6--6--|
D|-6-6-6-7-6----7-|-7--7--7--7--7----7--|-7-7-7-7-7----7--|-7--7--0--0--7----7--|
A|-7-7-7-7-7----0-|-0--0--0--0--0----0--|-----------------|-------9--9--0----0--|
E|----------------|---------------------|-----------------|-10-10---------------|



E|-9-9-7-7-5-4-4-5-|-7---------9-9-7-|-5-------------5-7-|
B|-5-5-------------|-------------5---|---------------5-5-|
G|-----7-7-6-4-4-6-|-7---------9---7-|-6-------------6-7-|
D|-7-7-6-6-7-------|---6-6-6-6-------|---7-7-7-7-7---7-7-|
A|-7-7-7-7-0-------|---7-7-7-7-------|-----7-7---0-------|
E|-----------------|-----------------|---------9---------|



E|-9--9--9--9--9--9--0-----|-7----------------7--|-9-9-9-7-----------|
B|-10-10-10-10-10-10-12-10-|-9-------------10----|---------10--10-10-|
G|-9--9--9--9--9--9-----11-|-9---9-7-------9--9--|-9-9-9-7-6---6--6--|
D|----------------------13-|---------11-9--7-----|-7-7-7-7-7---7--7--|
A|-12-12-12-12-12-12-11-9--|-7---7-9-7--------11-|-0-0-0-0-0---0--0--|
E|-------------------------|------------10-9--7--|-------------------|



E|----------2-0---5----|-0--9--9--9--7--7--9--7--|-5------------|
B|-7--10-10-3-2---2-12-|-14----------------------|-2------------|
G|-7--7--7--2-2---2----|----9--9--9--7--7--9--7--|-2------------|
D|-7--0--0--0-------12-|-------------------------|--------------|
A|----9--9----0-----12-|-12-12-12-12-11-11-12-11-|-0------------|
E|-10------------------|-------------12-12-12-12-|--------------|

Comentários 0

Consegui tocarAinda não conseguiram tocar essa música. Seja o primeiro!
    Não consegui tocar
    Exibir acordes »
    publicidade
    fechar