De Ti Preciso Mais

Harpa Cristã

 Harpa Cristã
Tom: 
		

E|----------------------------------|-----6-9-----6----6---------------|
B|-9-9-9-9-----6----4----4-6--------|-7-9---------7----7--9-6-4--------|
G|-6-6-6-6-----6----5--6-5-6--------|-6-6-6-6-----6----6--6-6-5--------|
D|-------------6----4----6-6--------|-8-6---8---------------6-6--------|
A|-8-8-8-8-------------8------------|-9-9-9-9-----9--------------------|
E|-9-9-9-9-----9----4--4-4-9--------|------------------9--9-9-4--------|



E|---------------------2-6-4--------|-6-----1--------------------------|
B|-7-7-7-7-----4----6--2-2-2--------|-2-----2-----4--------------------|
G|-8-8-8-8-----5----6--3------------|-------1-----5----6---------------|
D|-6-6-6-6-----6----6----4-3--------|-4-----------4----3---------------|
A|------------------4--4-4-4--------|------------------4---------------|
E|-4-4-4-4-----4--------------------|-2-2-2-4-----4--------------------|



E|-6-6-6-6-----9--------|-4-4-4-4-----4--------|------------8--6---6-8--|
B|----------7--7--------|-6-6-6-6--6--6--------|-8-6----11-------9------|
G|-6-6-6-6--6-----------|-6-6-6-6--6--6--------|-6-6-8--0---8--6-5-6-8--|
D|----------8--8--------|----------6-----------|-8-6-11-11-----6-6-6-6--|
A|-9-9-9-9--9--9--------|-4-4-4-4--4--4--------|-6-6-10-----10-------9--|
E|----------------------|----------------------|-----11-11--11----------|



E|-9---6----------------|
B|---9---6--4-----------|
G|-6-6-6-6--5--6--------|
D|-6-----6--4--3--------|
A|-8-8-9-------4--------|
E|----------4-----------|

Comentários 0

Consegui tocarAinda não conseguiram tocar essa música. Seja o primeiro!
    Não consegui tocar
    Exibir acordes »
    publicidade
    fechar