Dominador é Deus

Harpa Cristã

 Harpa Cristã
Tom: 
		

E|---------3-|-3-3-3-3----3-|-5-------5-|-5-5-5---5-|-7-------7-|-7-7-7-7-5-7-|
B|---------3-|-3-3-3-3-7--3-|-7-------7-|-7-7-7---7-|-8-------8-|-8-8-8-8-7-8-|
G|---------4-|-4-4-4-4-7--4-|-7-------7-|-7-7-7---7-|-7-------7-|-7-7-7-7-7-7-|
D|---------5-|-5-5-5-5-10-5-|-----------|-----------|-5-------5-|-5-5-5-5---5-|
A|-----------|---------12---|-5-------5-|-5-5-5---5-|-----------|---------5---|
E|-----------|--------------|-----------|-----------|-----------|-------------|



E|-8-------5-|-7-5-3---2-|-3--------|
B|-8-------7-|-8-5-3---3-|-3--------|
G|-9-------7-|-7-5-4---2-|-4--------|
D|-----------|-5---0---0-|-5--------|
A|---------5-|-----------|----------|
E|-8---------|---8-------|----------|
454 exibições

Comentários 0

Composição: Autor desconhecido
Esse não é o compositor? Avise-nos.
Contribuição: Helon C.O.
Consegui tocarAinda não conseguiram tocar essa música. Seja o primeiro!
    Não consegui tocar
    Exibir acordes »
    publicidade
    fechar