Em Glória Virá!

Harpa Cristã

 Harpa Cristã
Tom: G
		

E|-----------|-----5---7-|-9---10--9-|-7---------|------------|-----5---9-|
B|---------5-|-5---5-----|-----7-----|-----7---9-|-10-------5-|-5---5---5-|
G|---------6-|-6-------9-|-9-------9-|-9---7---7-|-6--------6-|-6---------|
D|---------7-|-7---7---6-|-7---7---7-|-6---7---9-|-7--------7-|-7---7---7-|
A|-----------|---------7-|-----------|-7---7---7-|-0--------0-|-0-------0-|
E|---------5-|-5---9-----|-----------|-----------|------------|-----9-----|



E|-12--10--9--|-9---7------|-7----------|-10--9---7-|-9---7------|-7---5---4-|
B|-----10--10-|-10--10--10-|-9----------|-9---10--9-|-10--10--10-|-5---5---0-|
G|-9---11--9--|-8---8---8--|-9--------9-|-----9---9-|-9---7---6--|-7---6---7-|
D|-11---------|---------9--|----------6-|-9---------|-7---7---7--|-----------|
A|-12--12--12-|-9---9------|-7--------7-|-7---7---7-|------------|-7---7---8-|
E|------------|------------|------------|-----------|------------|-----------|



E|-5--------5-|-7---9---10-|-12----------|-10--9---7-|-5--------0-|-0---------|
B|----------7-|-0-------0--|----------10-|-7---------|------------|---------5-|
G|-6--------6-|-11--11--11-|-9--------11-|-----9---7-|-6----------|-----6-----|
D|-7----------|-0---8------|----------11-|-9---6---6-|-7----------|-----------|
A|-9--------9-|------------|-12-------9--|-----7---7-|----------7-|-7-------7-|
E|------------|-----9---7--|-9-----------|-7---------|-5----------|-----9-----|



E|-5--------5-|---------5-|-9--------|-10---9--7-|-10--9---7-|-5---0---2-|
B|------------|-----5-----|----------|-9----9--9-|-9---9-----|-5-------3-|
G|------------|-----------|-6--------|-11---9--7-|-11--9---7-|-6---6---2-|
D|-7--------7-|-7-------7-|----------|-----------|-----------|-7---7---0-|
A|------------|-----7-----|----------|-7----7--7-|-7---7---7-|-----------|
E|------------|-----------|----------|-----------|-----------|-----------|



E|-0-------0-|-2---2---0--|-0----------|-9----------|-12-------14-|-12--0---0--|
B|-2---------|-3---3---0--|---------10-|-10--12--0--|-0-----------|---------12-|
G|-2-------2-|-2---2---13-|-14--9---9--|-9---14--14-|-13-------14-|-14--14-----|
D|-----------|-0---0---0--|-----11--11-|-----13--13-|----------12-|-11--11--12-|
A|-0-------4-|------------|-12--0---12-|-12--9------|-------------|------------|
E|-----------|------------|-9----------|------------|-12-------10-|-12--12--12-|



E|-0--------|
B|----------|
G|-14-------|
D|-11-------|
A|-0--------|
E|----------|

Comentários 0

Consegui tocarAinda não conseguiram tocar essa música. Seja o primeiro!
    Não consegui tocar
    Exibir acordes »
    publicidade
    fechar