Jesus é a Luz Do Mundo

Harpa Cristã

 Harpa Cristã
Tom: 
		

E|-------------------------------|-----------------8--8--8--8------|
B|-------------------10-10-8-----|-8--6--8--10--10----------10--10-|
G|-------------10-12----10-10-10-|-9--7--9--10--10-10-10-10-----10-|
D|----------10-10-10-10-10-8--7--|-10-10-10-10-----7--7--7--10--10-|
A|----------12-12-13-------8--8--|----------8---8--8--8--8--8---8--|
E|----------13-13-13-13-13-------|-8--8--8-------------------------|



E|-------------------------------|-------0-------------------------|
B|-10---8------------10-10-8-----|-8--6--8--10--10-13-13-13-13--10-|
G|-10---9------10-12----10-10-10-|-9--7-----10--10-10-10-10-14--10-|
D|-10---10--10-10-10-10-10-8--7--|-10-10-10-10--------------10--10-|
A|----------12-12-13-------8--8--|-----------------12-12-12--------|
E|-8----8---13-13-13-13-13-------|-8--8--8--13--13-13-13-13-13--13-|



E|-3-----------3-3-5-3--8-|-7-5-7-8-----0-0-5-0--8-|-7-5-7-8-----8-5-6-8------|
B|-5----6------5-5-6-5--5-|-6-6-6-5-----8-8-6-8--5-|-6-6-6-5--8--6-6-6-----10-|
G|-3----2------5-5-5-5--5-|-7-7-7-5-----5-5-5-5--5-|-7-7-7-5---------0-10--8--|
D|------3-----------------|-5-5-5------------------|-5-5-5----8--7-----7---10-|
A|-3-----------3-3-3-3----|------------------------|-------------8-8-8-8---8--|
E|----------------------8-|-------8-----8-8-8-8--8-|-------8------------------|



E|-6-5-6-10--10-8--8--8--8------|----------------------|
B|-------6---6-----------10--10-|-8--------------------|
G|-7-5-7--------10-10-10-----10-|-9----10--------------|
D|-8-8-8-8---8--7--7--7--10--10-|-8----7---------------|
A|--------------8--8--8--8---8--|------8---------------|
E|-6-6-6-6---6------------------|-8--------------------|
398 exibições

Comentários 0

Consegui tocarAinda não conseguiram tocar essa música. Seja o primeiro!
    Não consegui tocar
    Exibir acordes »
    publicidade
    fechar